» » »

Unsigned, Trugga - Slow Luck Tabs (ver.1)

Artists:  A B C D E F G H I J K L M N O P Q R S T U V W X Y Z # 

Trugga - Slow Luck Tabs (ver.1)

Unsigned Tabs
 Rating:
4/5 (4 votes)
Trugga - Slow Luck lessons Tabs too difficult? Try these video lessons and learn fast
                			     SLOW LUCK - TRUGGA
the dudes at TRUGGA are real maestros

Tuning: standard
  G                    D                   C                  C7
e|---------------------------------------2------------------------|
B|-------------------------3---3-------3---------------------1----|
G|-------------------0---2---2---2---2---------0---0-------0---3--|
D|-----0---0-------0---0-----------0---------2---2---2---2--------|
A|---2---2---2---2-------------------------3-----------3----------|
E|-3-----------3--------------------------------------------------|


G
wish me good luck, im gunna need it
D
pray for me tonight, im gunna need it
C
keep me in your heart, im gunna need it 
C7
soon
(repeat)

F
cause i dont know, what the 
Am
future holds for
E
me
A7

G
just ride it out its not as scary
D
as you think, its not as easy
C
as you hoped, to let
C7
go
(repeat)

F
when all see, is a
Am
reminder or forgotten
E
memories
A7

  G                    D                   C                  C7
e|---------------------------------------2-----------------------------------|
B|-------------------------3---3-------3---------------------1---------------|
G|-------------------0---2---2---2---2---------0---0-------0---3-------3-----|
D|-----0---0-------0---0-----------0---------2---2---2---2-------2---2---2---|
A|---2---2---2---2-------------------------3-----------3-----------3-------3-|
E|-3-----------3-------------------------------------------------------------|



  G                    D                   C                  C7
e|---------------------------------------2-----------------------------------|
B|-------------------------3---3-------3---------------------1---------------|
G|-------------------0---2---2---2---2---------0---0-------0---3-------3-----|
D|-----0---0-------0---0-----------0---------2---2---2---2-------2---2---2---|
A|---2---2---2---2-------------------------3-----------3-----------3-------3-|
E|-3-----------3-------------------------------------------------------------|


  F              Am            E              E  A7
e|-----------1-------------0-------------0----0--0--|
B|-----1---1---1-----1---1---1-----0---0---0--0--2--|
G|---2---2---------2---2---------1---1--------1--0--|
D|-3-------------2-------------2--------------2--2--|
A|--------------------------------------------2--0--|
E|--------------------------------------------0-----|


G
wish me good luck, im gunna need it
D
pray for me tonight, im gunna need it
C
keep me in your heart, im gunna need it
C7
soon
(repeat)

F
cause i dont know, what the 
Am
future holds for
E
me

  F              Am            E              E  
e|-----------1-------------0-------------0----0--|
B|-----1---1---1-----1---1---1-----0---0---0--0--|
G|---2---2---------2---2---------1---1--------1--|
D|-3-------------2-------------2--------------2--|
A|--------------------------------------------2--|
E|--------------------------------------------0--|

this is the work of TRUGGA and can not be used by anyone unless permission has been granted by one of the TRUGGA dudes
            
Submit corrections

comments powered by Disqus
↑ Back to top | Unsigned Tabs for Trugga - Slow Luck. Lyrics for acoustic guitar and electric guitar. Tablatures and chords are parodies/interpretations of the original songs. You may use it for private study, scholarship, research or language learning purposes only