>
 >
Trugga - Nightly Ramblings

Trugga - Nightly Ramblings Guitar Tabs

Unsigned - Trugga - Nightly Ramblings chords, tabs, tablatures, lyrics

Guitar lessons | Add/correct | Request | Top 50 tabs Artists:  A B C D E F G H I J K L M N O P Q R S T U V W X Y Z 0-9

Trugga - Nightly Ramblings Guitar Tabs – Unsigned

CD, Sheet music, Poster

Do you like Trugga - Nightly Ramblings? Share with your friends now
Tabs
Tuning: standard

this is a fairly simple song from one of my favourite bands, play it fast 

intro 
e|---------------------------------------|
B|-----9---------------------------------|
G|---9---9------9------------------------|
D|-7------7---9---9-------9--------------|
A|----------7-------7---9---9-----11---9-|
E|--------------------7-------7--9---7---|


verse (4 times)
e|-----------------------------------------------|
B|-9-9-9-9-9-9-----------------------------------|
G|-9-9-9-9-9-9-9-9-9-9-9-9-----------------------|
D|-7-7-7-7-7-7-9-9-9-9-9-9-9-9-9-9-9-9-11-11-9-9-|
A|-------------7-7-7-7-7-7-9-9-9-9-9-9-11-11-9-9-|
E|-------------------------7-7-7-7-7-7--9--9-7-7-|


chorus (4 times, with distortion)
e|-------------------------------------------------------------|
B|-------------------------------------------------------------|
G|-------------------------------------------------------------|
D|-8-8-8-8-8-8-10-10-10-10-10-10-5-5-5-5-5-5-10-10-10-10-10-10-|
A|-8-8-8-8-8-8-10-10-10-10-10-10-5-5-5-5-5-5-10-10-10-10-10-10-|
E|-6-6-6-6-6-6--8--8--8--8--8--8-3-3-3-3-3-3--8--8--8--8--8--8-|


solo (very simple)
e|---------------------------------------------------------------------------
B|-----9--------------------------------------9------------------------------
G|---9---9-------9--------------------------9---9-------9--------------------
D|-7-------7---9---9-------9--------------7-------7---9---9-------9----------
A|-----------7-------7---9---9-----11---9-----------7-------7---9---9-----11-
E|---------------------7-------7--9---7-----------------------7-------7--9---



e|---------------------------------------------------------------------------
B|-----9--------------------------------------9------------------------------
G|---9---9-------9--------------------------9---9-------9--------------------
D|-7-------7---9---9-------9--------------7-------7---9---9-------9----------
A|-----------7-------7---9---9-----11---9-----------7-------7---9---9-----11-
E|---------------------7-------7--9---7-----------------------7-------7--9---


(second guitar plays chorus chords through this part)
e|------------------------------------------------------------------------------
B|------------------------------------------------------------------------------
G|------------------------------------------------------------------------------
D|-----8--------10--------5--------10---------8--------10--------5--------10----
A|---8---8----10--10----5---5----10--10-----8---8----10--10----5---5----10--10--
E|-6-------6-8------8-3-------3-8-------8-6-------6-8------8-3-------3-8------8-


outro
e|-------------------------------------------------|
B|-9-9-9-9-9-9-------------------------------------|
G|-9-9-9-9-9-9-9-9-9-9-9-9-------------------------|
D|-7-7-7-7-7-7-9-9-9-9-9-9-9-9-9-9-9-9-11-11-9-9-2-|
A|-------------7-7-7-7-7-7-9-9-9-9-9-9-11-11-9-9-2-|
E|-------------------------7-7-7-7-7-7--9--9-7-7-0-|

Order
-intro
-verse
-chorus
-verse
-chorus
-verse
-chorus
-solo
-chorus 
-chorus
-outro

well thats it i think, i haven't included the lyrics though
enjoy





Comments


Popular Unsigned tabs & chords
Cool Blues Riff Bass Tabs
Golden Sex & Silver People - Bernok Song 1 Bass Tabs
The Bomba Bass Tabs
Balthazar - Strum Tabs
Barcode- The Plant Tabs
Empty Slot- Dork Tabs
Fernands Band - Mr. Haug Tabs
Fringe-No Name Yet Tabs
Grimreaper Warlords- Kill All Tabs



Song lyrics



↑ Back to top | Tablatures and chords are parodies/interpretations of the original songs. You may use it for private study, scholarship, research or language learning purposes only
© 2014 AZChords.com Contact us | Privacy policy | DMCA | Add/correct tabs | Request tabs | Top 50 tabs