» » »

Unsigned, Topless - Brand Names Tabs (ver.1)

Artists:  A B C D E F G H I J K L M N O P Q R S T U V W X Y Z # 

Topless - Brand Names Tabs (ver.1)

Unsigned Tabs
Rating:
0/5 (0 votes)
Topless - Brand Names lessons Tabs too difficult? Try these video lessons and learn fast
                Performed by: Topless

Intro
E----------17-----------------------
B------18---------------------------
G--19-------------------------------4x 
D------------------------------------
A------------------------------------
E------------------------------------
Pre-verse
E---17----------------------------
B---18----------------------------
G---19----------------------------20x
D----------------------------------
A----------------------------------
E----------------------------------
 
Verse
E----------------------
B------3--------------
G-----------0h1------6x
D---2-----------------
A----------------------
E----------------------

Chorus (Distortion)
E---------------------------------------------------------|
B---------------------------------------------------------|
G---------------------------------------------------------|3x
D-----------------6-6-6-6-6-----------------------------|
A---7-7-7-7-7--4-4-4-4-4---3-3-3-3-3---2-2-2-2-2|
E---5-5-5-5-5-----------------1-1-1-1-1---0-0-0-0-0|

Order:
Intro
Pre-verse
Verse
Chorus
Pre-verse
Verse
Chorus
Pre-verse
Chorus
            
Submit corrections

comments powered by Disqus
↑ Back to top | Unsigned Tabs for Topless - Brand Names. Lyrics for acoustic guitar and electric guitar. Tablatures and chords are parodies/interpretations of the original songs. You may use it for private study, scholarship, research or language learning purposes only