» » »

Unsigned, Tomorrows Hero - This Promise Tabs (ver.1)

Artists:  A B C D E F G H I J K L M N O P Q R S T U V W X Y Z # 

Tomorrows Hero - This Promise Tabs (ver.1)

Unsigned Tabs
Rating:
0/5 (0 votes)
Tomorrows Hero - This Promise lessons Tabs too difficult? Try these video lessons and learn fast
                This Promise

Tomorrow’s Hero

Drop D Tuning

D b g d a e

Riff 1 x 4

|----------------------------------------------------------------------------------------------------------|
|-------0------------0------------0------0------0-------------------------------------------------------|
|---------0------------0------------0--0---0--0--0-----------------------------------------------------|
|-3-3------3---5-5-----5---7-7-----7-------7----7----------------------------------------------------|
|-0-0--------0-0-0-------0-0-0-------------------------------------------------------------------------|
|-3-3---------- 5-5---------7-7-------------------------------------------------------------------------|

Riff 2 Palm Muted x 4

|---------------------------------------------------------------------------------------------------------|
|---------------------------------------------------------------------------------------------------------|
|---------------------------------------------------------------------------------------------------------|
|-33333333-55555555-7777777777777757------------------------------------------------------|
|-33333333-55555555-7777777777777757------------------------------------------------------|
|-33333333-55555555-7777777777777757------------------------------------------------------|

Riff 1 x 8

Riff 3 

|----------------------------------------------------------------------------------------------------------|
|----------------------------------------------------------------------------------------------------------|
|-55555555-77777777-999999979-55555555-77777777-33333333-22222------------------|
|-55555555-77777777-999999979-55555555-77777777-33333333-22222------------------|
|-33333333-55555555-777777757-33333333-55555555-11111111-00000------------------|
|-33333333-55555555-777777757-33333333-55555555-11111111-00000------------------|

|----------------------------------------------------------------------------------------------------------|
|----------------------------------------------------------------------------------------------------------|
|-55555555-77777777-99999999-10--10-10-10-10-55555555-77777777-33333-22222---|
|-55555555-77777777-99999999-10--10-10-10-10-55555555-77777777-33333-22222---|
|-33333333-55555555-77777777---8---8---8--8--8-33333333-55555555-11111-00000---|
|-33333333-55555555-77777777---8---8---8--8--8-33333333-55555555-11111-00000---|


Riff 4 x 2

|----------------------------------------------------------------------------------------------------------|
|-6-----5-----8-----6-----6-----5-----8-----6----------------------------------------------------------|
|-x-----x-----x-----x-----x-----x-----x-----x----------------------------------------------------------|
|-3-----2-----5-----3-----3-----2-----5-----3----------------------------------------------------------|
|----------------------------------------------------------------------------------------------------------|
|----------------------------------------------------------------------------------------------------------|

Riff 5 x 2

|-----------------------------------------------------------------------------------------------------------
|-6-----6------6-----6------6--------5-----5------5-----5------5---------------------------------------
|-----------------------------------------------------------------------------------------------------------
|---3-3---3-3---3-3---3-3---3-3-3---2-2---2-2---2-2---2-2---2-2-2--------------------------------
|-----------------------------------------------------------------------------------------------------------
|-----------------------------------------------------------------------------------------------------------


-8-----8------8-----8------8----------------------------------------------------------------------------|
---5-5---5-5---5-5---5-5---5-5-5---------------------------------------------------------------------|
            
Submit corrections

comments powered by Disqus
↑ Back to top | Unsigned Tabs for Tomorrows Hero - This Promise. Lyrics for acoustic guitar and electric guitar. Tablatures and chords are parodies/interpretations of the original songs. You may use it for private study, scholarship, research or language learning purposes only