» » »

Time For Nothing - Leaving Home Bass tabs (ver.1)

Artists:  A B C D E F G H I J K L M N O P Q R S T U V W X Y Z # 

Time For Nothing - Leaving Home Bass tabs (ver.1)

Unsigned
Rating:
0/5 (0 votes)

Hard to play? Try these video lessons and learn fast.
                INTRO X2

G--------------------------------|
D--------------------------------|  
A---7~-----------9h7-9~----------|
E----------7~---------------5~---|

CHORUS X2

G------------------------------------------------------------------------------|
D------------------------------------------------------------------------------|  
A-7777--1111-121212--------1111-121212--9999--1111-121212--------1212--111111--|
E--------------------7777----------------------------------5555----------------|

VERSE 
X2                                         X2
G-----------------------------------------|---------------------------------------|
D-----------------------------------------|---------------------------------------|  
A--77777777-----------99999999------------|-77777777---------9h79999999-----------|
E-----------77777777-------------55555555-|----------7777777------------55555555--|

CHORUS X2

G------------------------------------------------------------------------------|
D------------------------------------------------------------------------------|  
A-7777--1111-121212--------1111-121212--9999--1111-121212--------1212--111111--|
E--------------------7777----------------------------------5555----------------|

VERSE 
X2                                         X2
G-----------------------------------------|---------------------------------------|
D-----------------------------------------|---------------------------------------|  
A--77777777-----------99999999------------|-77777777---------9h79999999-----------|
E-----------77777777-------------55555555-|----------7777777------------55555555--|

CHORUS X2

G------------------------------------------------------------------------------|
D------------------------------------------------------------------------------|  
A-7777--1111-121212--------1111-121212--9999--1111-121212--------1212--111111--|
E--------------------7777----------------------------------5555----------------|

CHORUS X4

G---------------------------------------------------------------------------------|
D---------------------------------------------------------------------------------|  
A-779h7--1111-121212---9h7--1111-121212--999h7--1111-121212----9h7--1212--111111--|
E--------------------77--------------------------------------55-------------------|

END 
A--7--|
            
Hard to play? Try these video lessons and learn fast. | Correct




comments powered by Disqus
↑ Back to top | Tablatures and chords are parodies/interpretations of the original songs. You may use it for private study, scholarship, research or language learning purposes only