» » »

Thorn - Without A Doubt Tabs (ver.1)

Artists:  A B C D E F G H I J K L M N O P Q R S T U V W X Y Z # 

Thorn - Without A Doubt Tabs (ver.1)

Unsigned
Rating:
0/5 (0 votes)

Hard to play? Try these video lessons and learn fast.
                This is my bands song so please don't copy in any way cause we worked to hard on these songs to be copied off of!
Tuning-Standard Tuning
E A D G B E

------------0------------0------------0------------0--------------------------
-----------0------------0------------0------------0---------------------------
----------0------------0------------0------------0----------------------------
---------0------------0------------0------------0-----------------------------
----999----------777----------999----------777--------------------------------
-777----------555----------777----------555-----------------------------------
 THESE PARTS ARE ALL PLAYED WITH CLEAN AND REVERBED SOUND!                    

-111111--------111111---------------------------------------------------------
--------222222---------222222--------------------------------------------------
-222222-222222-222222-222222--------------------------------------------------
-333333--------333333---------------------------------------------------------
                                                                              

-33333333-33333333-33333333-22222222-33333333-33333333------------------------
-33333333-33333333-33333333-33333333-33333333-33333333------------------------
-------------------------------22222222------------------------------------------
-----------22222222---------------------22222222---------------------------------
-22222222-33333333-22222222-----------33333333-22222222------------------------
-33333333-----------33333333---------------------33333333------------------------
                                                                              

---------------0------------0------------0-------------00000000---------------
-------------0------------0------------0-------------00000000-----------------
-----------0------------0------------0-------------00000000-------------------
---------0------------0------------0-------------00000000---------------------
----999----------777----------999-----------77777777--------------------------
-777----------555----------777-----------55555555-----------------------------
                                                                              

---------------0------------0-------------0------------0----------------------
-------------0------------0-------------0------------0------------------------
-----------0------------0-------------0------------0--------------------------
---------0------------0-------------0------------0----------------------------
----999----------777-----------999----------777-------------------------------
-777----------555-----------777----------555----------------------------------
 KICK THE DISTORTION ON HERE,WITH ALL KINDS OF PALM MUTING FROM HERE TIL THE  

-111111--------111111---------------------------------------------------------
---------222222---------222222--------------------------------------------------
-222222-222222-222222-222222--------------------------------------------------
-333333---------333333---------------------------------------------------------
 END OF THE SONG!                                                             

-33333333-33333333-33333333-33333333-33333333-33333333------------------------
-33333333-33333333-33333333-22222222-33333333-33333333------------------------
-------------------------------33333333------------------------------------------
-----------22222222--------------------22222222---------------------------------
-22222222-33333333-22222222----------33333333-22222222------------------------
-33333333-----------33333333--------------------33333333------------------------
                                         LET THIS RING OUT WITH DISTORTION!   

End! This is a pretty cool song and easy to play so enjoy!
            
Hard to play? Try these video lessons and learn fast. | Correct




comments powered by Disqus
↑ Back to top | Tablatures and chords are parodies/interpretations of the original songs. You may use it for private study, scholarship, research or language learning purposes only