» » »

This Is - Other Tabs (ver.1)

Artists:  A B C D E F G H I J K L M N O P Q R S T U V W X Y Z # 

This Is - Other Tabs (ver.1)

Unsigned
Rating:
0/5 (0 votes)

Tabs too difficult? Try these video lessons and learn fast.
                                                                              3x
E||-------------------------------|---------------------------||
B||---------7-------------10------|--------5-----------3------||
G||*-----8-----8------11------11--|-----6-----6-----4-----4--*||
D||*--9-----------12--------------|--7-----------5-----------*||
A||-------------------------------|---------------------------||
E||-------------------------------|---------------------------||


                                 3x
---------------------------------||
---------------------------------||
*--4--4-4-7--7-7--------9-9-9-9-*||
*--4--4-4-7--7-7-7--7-7-9-9-9-9-*||
---2--2-2-5--5-5-7--7-7-7-7-7-7--||
-----------------5--5-5----------||
            
Tabs too difficult? Try these video lessons and learn fast.




comments powered by Disqus
↑ Back to top | Tablatures and chords are parodies/interpretations of the original songs. You may use it for private study, scholarship, research or language learning purposes only