» » »

Third Time Lucky - D.I.L.D.O Tabs (ver.1)

Artists:  A B C D E F G H I J K L M N O P Q R S T U V W X Y Z # 

Third Time Lucky - D.I.L.D.O Tabs (ver.1)

Unsigned
Rating:
0/5 (0 votes)

Hard to play? Try these video lessons and learn fast.
                D.I.L.D.O By Third Time Lucky


E/-----3-------------------------/
A/-----6--6--1--3----------------/        This is the intro and the chorus.
D/-----6--6--3--5----------------/
G/--------8--3--5----------------/
B/-------------------------------/
E/-------------------------------/

E/-------------------------------/    This is the intrulde
A/--3--10--9--5------------------/
D/--5--12--11-7------------------/
G/--5--12--11-7------------------/
B/-------------------------------/
E/-------------------------------/
E/
            
Hard to play? Try these video lessons and learn fast. | Correct




comments powered by Disqus
↑ Back to top | Tablatures and chords are parodies/interpretations of the original songs. You may use it for private study, scholarship, research or language learning purposes only