» » »

Unsigned, Third And Main - Realize Tabs (ver.1)

Artists:  A B C D E F G H I J K L M N O P Q R S T U V W X Y Z # 

Third And Main - Realize Tabs (ver.1)

Unsigned Tabs
 Rating:
4/5 (4 votes)
Third And Main - Realize lessons Tabs too difficult? Try these video lessons and learn fast
1
                Band-Third and Main
Song-Realize

Enjoy!

*-played on Astring(high chord)

Intro-1 Guitar 1
  C  G  A F*  C  G A  F*
E-----------------------------------------------
B-----------------------------------------------
G-5-------10--5-------10------------------------Ring out F*
D-5--5--7-10--5--5--7-10------------------------
A-3--5--7--8--3--5--7--8------------------------
E----3--5--------3--5---------------------------

Intro-2 Guitar 1 splits
  F* E* D  C    F* E* D  C    F* E* G*  F*  F* E* D  C
E----------------------------------------------------------
B----------------------------------------------------------
G-10-9--7--5----10-9--7--5----10-9--12--10--10-9--7--5-----X2
D-X--X--X--X----X--X--X--X--- X--X--X---X---X--X--X--X-----
A-8--7--5--3----8--7--5--3----8--7--10--8---8--7--5--3-----
E----------------------------------------------------------

Intro-2 Guitar 2
  C  G  A  F  C  G  F F F  G
E-----------------------------------------------
B-----------------------------------------------
G-5-----------5---------------------------------
D-5--5--7--3--5--5--3-3-3--5--------------------
A-3--5--7--3--3--5--3-3-3--5--------------------
E----3--5--1-----3--1-1-1--3--------------------


Verse-1 Guitar 1&2 palm muted.
  C  G  A  F  C  G  A  F "I don't know why.."
E-----------------------------------------------
B-----------------------------------------------
G-5-----------5---------------------------------
D-5--5--7--3--5--5--7--3------------------------
A-3--5--7--3--3--5--7--3------------------------
E----3--5--1-----3--5--1------------------------

Prechorus Guitar 1 splits "And when I think.."
Guitar 2 plays the same as verse-Guitar 2.
  C  D  E* F*    C  D  E* F*
E-----------------------------------------------
B-----------------------------------------------
G-5--7--9--10----5--7--9--10--------------------Pause for one measure.
D-X--X--X--X-----X--X--X--X---------------------
A-3--5--7--8-----3--5--7--8---------------------
E-----------------------------------------------

Chorus Guitar 1&2 "When you see.."
  C B/C A  F  C B/C F F F  G
E-----------------------------------------------
B-----------------------------------------------
G-5--5--------5--5------------------------------X2
D-5--5--7--3--5--5--3-3-3--5-------------------- Guitar 2 play G instead of B/C.
A-3--2--7--3--3--2--3-3-3--5--------------------
E-------5--1--------1-1-1--3--------------------

Bridge Guitar 1&2 First time no vocals.
  G  F   G  F   G  F* 
E-----------------------------------------------
B-----------------------------------------------
G-----------------------------------------------
D-5--3---5--3---5--10---------------------------Palm F* for 4 measures.
A-5--3---5--3---5--10---------------------------
E-3--1---3--1---3--8----------------------------

Intro-2

Verse 2 same as verse 1.

Prechorus

Chorus

Bridge "When will I be.."

Intro-2

End on C.


Thanks for checking this out.
            
Submit corrections

comments powered by Disqus
↑ Back to top | Unsigned Tabs for Third And Main - Realize. Lyrics for acoustic guitar and electric guitar. 1 Tablatures and chords are parodies/interpretations of the original songs. You may use it for private study, scholarship, research or language learning purposes only