» » »

Unsigned, The Zeeman Effect - One Year Later Bass tabs (ver.1)

Artists:  A B C D E F G H I J K L M N O P Q R S T U V W X Y Z # 

The Zeeman Effect - One Year Later Bass tabs (ver.1)

Unsigned Tabs
 Rating:
4/5 (4 votes)
The Zeeman Effect - One Year Later lessons Tabs too difficult? Try these video lessons and learn fast
1
                One Year Later
The Zeeman Effect

Intro (w/ chorus)

--------------------
--------------------
--------------------
--------14h151515\--


Verse – Lots of fills! (w/ chorus)
   		             Fill here
-------------------------------|-------|
-------------------------------|-------|
--10-10—10p9-------------------|-------|
------------10-10—10h11-11-11--|5-0-2-3|


Chorus1 (w/ chorus)

-------------------------------------
----------------------------------8-7
--10-10—10p9-------------------------
------------10-10—10h11-11-11--116-5-
         			      spsp
 
-----------------------------------------------
------------------------------------12-1312----
--10-10—10p9-------------------12h13—13----1312
------------10-10—10h11-11-11------------------


Chorus2 (lots of distortion)

--------------------------
--------------------888777
--------5-5-5h6-6-6-------
--3-3-3-------------------


Bridge/Solo (more distortion)

------------7---------------------7------------
-----5----5------5-8-7-----5----5------5-------
-------5h6-5-------6-5-------5h6-5----------5--
--3-x-3-------3-x-3-----3-x-3-------3-x-356x-65
  s spss  psp s spss s  s spss  psp s spsssssss

------------7------------------------7--------------
-----5----5------5------------5----5------5----1----
-------5h6-5--------------------5h6-5-------1h3-3p1-
--3-x-3-------3-x-3(0)(1)--3-x-3-------3-x-3-------3
  s spss  psp s sps s  s   s spss  psp s spss  ps  s

Order:
Play the Intro some
Then play the Verse a few times
Chorus1 2x
Rest
Chorus2 some times
Verse a few times
Chorus1 2x
Rest
Chorus2 some times
Bridge/Solo
Verse a lot
Chorus1 2x
Chorus2 long
            
Submit corrections

comments powered by Disqus
↑ Back to top | Unsigned Bass for The Zeeman Effect - One Year Later. Lyrics for acoustic guitar and electric guitar. 1 Tablatures and chords are parodies/interpretations of the original songs. You may use it for private study, scholarship, research or language learning purposes only