» » »

Unsigned, The Wolves-Don Have A Name Tabs (ver.1)

Artists:  A B C D E F G H I J K L M N O P Q R S T U V W X Y Z # 

The Wolves-Don Have A Name Tabs (ver.1)

Unsigned Tabs
 Rating:
4/5 (4 votes)
The Wolves-Don	 Have A Name lessons Tabs too difficult? Try these video lessons and learn fast
1
                INTRO 4X	

E--------------------------------------------------------
B--------------------------------------------------------
G---7-----------3---------------------------------------
D---7---8X------3---8X--------5----------7--------------	
A---5-----------1-------------5---8X-----7---8X-------
E-----------------------------3----------5--------------


VERSE  4X

E--------------------------------------------------------
B--------------------------------------------------------
G--7-----------4-----------7---------------------------
D--7---8X------4---8X------7---8X-------4---------------
A--5-----------2-----------5------------4---8X--------
E---------------------------------------2---------------


PRE-CHORUS  2X

E--------------------------------------------------------
B--------------------------------------------------------
G--------------------------------------------------------
D---7-----------4---------------------------------------
A---7---8X------4---8X--------------------------------
E---5-----------2---------------------------------------


CHORUS  4X

E--------------------------------------------------------
B--------------------------------------------------------
G---4---------------------------------------------------
D---4---X8-------5-----------4--------------------------
A---2------------5---4X------4---4X-------------------
E----------------3-----------2--------------------------

THEN THE VERSE, PRE-CHORUS, AND CHORUS

THEN PLAY THIS RIFF 4X:

E--------------------------------------------------------
B--------------------------------------------------------
G--------------------------------------------------------
D--------------------------------------------------------
A--------------------------------------------------------
E---0-2-3-2-5-3-2-3-----------------------------------


THEN PLAY THE INTRO 2X INSTEAD OF 4X

THEN THE CHORUS

END ON THIS:

D---2---
A---2---
E---0---
            
Submit corrections

comments powered by Disqus
↑ Back to top | Unsigned Tabs for The Wolves-Don Have A Name. Lyrics for acoustic guitar and electric guitar. 1 Tablatures and chords are parodies/interpretations of the original songs. You may use it for private study, scholarship, research or language learning purposes only