» » »

Unsigned, The Usual - Unannounced Tabs (ver.1)

Artists:  A B C D E F G H I J K L M N O P Q R S T U V W X Y Z # 

The Usual - Unannounced Tabs (ver.1)

Unsigned Tabs
Rating:
0/5 (0 votes)
The Usual - Unannounced lessons Tabs too difficult? Try these video lessons and learn fast
                Tablature By: Dan Lape


Standard Tuning (e,a,d,g,b,e)
Mid-Level Distortion

Intro

e  ---------------------------------------------------------------------
B  ---------------------------------------------------------------------
G  ---------------------------------------------------------------------
D  2---2---2---2-2---2---2---2---2-2---2---2---2---2-2---2---2---2---2-2   
A  ----------0-----------------0-----------------0-----------------0----
E  --0---0-------------0---0-------------0---0-------------0---0--------

e  ---------------------------------------------------------------------
B  ---------------------------------------------------------------------
G  0---0---0---0-0---0---0---0---0-0------------------------------------
D  ---------------------------------------------------------------------
A  ---------------------------------------------------------------------
E  --3---3---3---------3---3---3----------------------------------------

e  ---------------------------------------------------------------------
B  ---------------------------------------------------------------------
G  ---------------------------------------------------------------------
D  2---2---2---2-2---2---2---2---2-2------------------------------------
A  ----------0-----------------0----------------------------------------
E  --0---0-------------0---0--------------------------------------------

e  ---------------------------------------------------------------------
B  ---------------------------------------------------------------------
G  4---4---4---4-4---2---2---2---2-2------------------------------------
D  ----------------------------2----------------------------------------
A  --------------------0---0--------------------------------------------
E  --3---3---3----------------------------------------------------------

e  ---------------------------------------------------------------------
B  ---------------------------------------------------------------------
G  ---------------------------------------------------------------------
D  2---2---2---2-2---2---2---2---2-2------------------------------------
A  ----------0-----------------0----------------------------------------
E  --0---0-------------0---0--------------------------------------------

e  ---------------------------------------------------------------------
B  ---------------------------------------------------------------------
G  4-4-4-4-4-4-4-4---2-2-2-2-2-2-2-2------------------------------------
D  2-2-2-2-2-2-2-2---2-2-2-2-2-2-2-2---2-2-2-2-2-2-2-2------------------ (x4)
A  0-0-0-0-0-0-0-0---0-0-0-0-0-0-0-0---2-2-2-2-2-2-2-2------------------
E  3-3-3-3-3-3-3-3---------------------0-0-0-0-0-0-0-0------------------

Delay (8 Seconds)

e  ---------------------------------------------------------------------
B  ---------------------------------------------------------------------
G  ---------------------------------------------------------------------
D  2---2---2---2-2---2---2---2---2-2---2---2---2---2-2---2---2---2---2-2   
A  ----------0-----------------0-----------------0-----------------0----
E  --0---0-------------0---0-------------0---0-------------0---0--------

e  ---------------------------------------------------------------------
B  ---------------------------------------------------------------------
G  4---4---4---4-4---2---2---2---2-2------------------------------------
D  ----------------------------2----------------------------------------
A  --------------------0---0--------------------------------------------
E  --3---3---3----------------------------------------------------------

e  ----------------------------------------------------------------------------
B  ----------------------------------------------------------------------------
G  ----------------------------------------------------------------------------
D  2---2---2---2-2---2---2---2---2-2---2---2---2---2-2---2---2---2---2-2---2---  
A  ----------0-----------------0-----------------0-----------------0-------2---
E  --0---0-------------0---0-------------0---0-------------0---0-----------0---

End.
            

comments powered by Disqus
↑ Back to top | Unsigned Tabs for The Usual - Unannounced. Lyrics for acoustic guitar and electric guitar. Tablatures and chords are parodies/interpretations of the original songs. You may use it for private study, scholarship, research or language learning purposes only