» » »

The Underachievers - Giving Up Tabs (ver.1)

Artists:  A B C D E F G H I J K L M N O P Q R S T U V W X Y Z # 

The Underachievers - Giving Up Tabs (ver.1)

Unsigned
Rating:
0/5 (0 votes)

Hard to play? Try these video lessons and learn fast.
                Giving Up
The Underachievers

Intro (Part 1)

Guitar 1

E|---10---8---7---8---10---8---7---8---10---8---7---8---10---8---7---8---|
B|-7----7---7---7---7----7---7---7---7----7---7---7---7----7---7---7---7-|
G|-----------------------------------------------------------------------|
D|-----------------------------------------------------------------------|
A|-----------------------------------------------------------------------|
E|-----------------------------------------------------------------------|


Intro (Part 2)

Guitar 1

E|---10---8---7---8---10---8---7---8------|----------------------------------------|
B|-7----7---7---7---7----7---7---7---7----|----------------------------------------|
G|----------------------------------------|----------------------------------------|
D|----------------------------------------|----------------------------------------|
A|----------------------------------------|----------------------------------------|
E|----------------------------------------|----------------------------------------|

Guitar 2

E|----------------------------------------|----------------------------------------|
B|----------------------------------------|----------------------------------------|
G|-7-7--5-5--4-4--5-5--7-7--5-5--4-4--5-5-|-7-7--5-5--4-4--5-5--7-7--5-5--4-4--5-5-|
D|-7-7--5-5--4-4--5-5--7-7--5-5--4-4--5-5-|-7-7--5-5--4-4--5-5--7-7--5-5--4-4--5-5-|
A|-5-5--3-3--2-2--3-3--5-5--3-3--2-2--3-3-|-5-5--3-3--2-2--3-3--5-5--3-3--2-2--3-3-|
E|----------------------------------------|----------------------------------------|

Bass

G|---------------------------------------------------------------------------------|
D|---------------------------------------------------------------------------------|
A|-5----3----2----3----5----3----2----3---|-5----3----2----3----5----3----2----3---|
E|---------------------------------------------------------------------------------|


Fill

Bass

G|---------|
D|-0-2-4-2-|
A|---------|
E|---------|


Verse 1/2

Guitar 1/2

E|-----------------------------------------------------------------|
B|-----------------------------------------------------------------|
G|-7-7-7-7-7-7-7-7-5-5-5-5-5-5-5-5-4-4-4-4-4-4-4-4-5-5-5-5-5-5-5-5-|
D|-7-7-7-7-7-7-7-7-5-5-5-5-5-5-5-5-4-4-4-4-4-4-4-4-5-5-5-5-5-5-5-5-| x2
A|-5-5-5-5-5—5-5-5-3-3-3-3-3-3-3-3-2-2-2-2-2-2-2-2-3-3-3-3-3-3-3-3-|
E|-----------------------------------------------------------------|
Pm-*-*-*-*-*-*-*-*-*-*-*-*-*-*-*-*-*-*-*-*-*-*-*-*-*-*-*-*---------|

Bass

G|-----------------------------------------------------------------|
D|-----------------------------------------------------------------| x2
A|-----------------------------------------------------------------|
E|-5-5-5-5-5—5-5-5-3-3-3-3-3-3-3-3-2-2-2-2-2-2-2-2-3-3-3-3-3-3-3-3-|


Fill

Bass

G|---------|
D|-0-2-4-2-|
A|---------|
E|---------|


Pre-Chorus

Guitar 1/2

E|-----------------------------------------------------------------|  	 |----|
B|-----------------------------------------------------------------|  	 |----|
G|-5-5-5-5-5-5-5-5-4-4-4-4-4-4-4-4-7-7-7-7-7-7-7-7-5-5-5-5-5-5-5-5-| x2  |-5r-|
D|-5-5-5-5-5-5-5-5-4-4-4-4-4-4-4-4-7-7-7-7-7-7-7-7-5-5-5-5-5-5-5-5-|  	 |-5r-|
A|-3-3-3-3-3-3-3-3-2-2-2-2-2-2-2-2-5-5-5-5-5-5-5-5-3-3-3-3-3-3-3-3-|  	 |-3r-|
E|-----------------------------------------------------------------|  	 |----|

Bass

G|-----------------------------------------------------------------|
D|-----------------------------------------------------------------| x3
A|-----------------------------------------------------------------|
E|-3-3-3-3-3-3-3-3-2-2-2-2-2-2-2-2-5-5-5-5-5-5-5-5-3-3-3-3-3-3-3-3-|


Fill

Bass

G|---------|
D|-0-2-4-2-|
A|---------|
E|---------|


Chorus

Guitar 2

E|----------|
B|----------|
G|-7r-5r-4r-| x3
D|-7r-5r-4r-|
A|-5r-3r-2r-|
E|----------|


Bass

G|-----------------------------------------|
D|-----------------------------------------| x3
A|-----------------------------------------|
E|-7-7-7-7-3-3-3-3-2-2-2-2-2-2-2-2-2-2-2-2-|


Fill

Bass

G|---------|
D|-0-2-4-2-|
A|---------|
E|---------|


Solo

Guitar 1

E|---10---8---7---8---10---8---7---8---10---8---7---8---10---8---7---8----|
B|-7----7---7---7---7----7---7---7---7----7---7---7---7----7---7---7---7b-|
G|------------------------------------------------------------------------|
D|------------------------------------------------------------------------|
A|------------------------------------------------------------------------|
E|------------------------------------------------------------------------|


Fill

Bass

G|---------|
D|-0-2-4-2-|
A|---------|
E|---------|


Verse 3

Guitar 2

E|-----------------------------------------------------------------|	 |---|
B|-----------------------------------------------------------------|	 |---|
G|-----6-------6-------6-------6-----------------------------------| x2  |-6-|
D|---6---6---6---6---6---6---6---6-----6-------6-------6-------6---|	 |-6-|
A|-4-------4-------4-------4---------6---6---6---6---6---6---6---6-|	 |-4-|
E|---------------------------------4-------4-------4-------4-------|	 |---|



Order:
Intro
Fill
Verse 1
Fill
Pre-Chorus
Fill
Chorus
Fill
Verse 2
Fill
Pre-Chorus
Fill
Chorus
Fill
Solo
Fill
Verse 3
Chorus
            
Hard to play? Try these video lessons and learn fast. | Correct




comments powered by Disqus
↑ Back to top | Tablatures and chords are parodies/interpretations of the original songs. You may use it for private study, scholarship, research or language learning purposes only