» » »

Unsigned, The Truth - Mercury Bass tabs (ver.1)

Artists:  A B C D E F G H I J K L M N O P Q R S T U V W X Y Z # 

The Truth - Mercury Bass tabs (ver.1)

Unsigned Tabs
Rating:
0/5 (0 votes)
The Truth - Mercury lessons Tabs too difficult? Try these video lessons and learn fast
                intro
G|-------------------666-5-666-5-------|
D|-666-55-3h666-55-3------------6-5-3-5|
A|-------------------------------------|
E|-------------------------------------|
riff 1
G|--6--6--6--5--6--3--5-----55--3--66-5--4-3|
D|-----------------------6------------------|
A|------------------------------------------|
E|------------------------------------------|
chorus
G|--------------------6-5-3-33-6-5-3-33------------------------------------|
D|--6-5-3-33-6-5-3-33-------------------6-5-3-33-6-5-3-33------------------|
A|--------------------------------------------------------6-5-3-33-3-3-3-33|
E|-------------------------------------------------------------------------|

well that's all 4 now... until my band and i finish the whole song (and the crasy bass solo... but this should be some fun stuff just to try out)
            
Submit corrections

comments powered by Disqus
↑ Back to top | Unsigned Bass for The Truth - Mercury. Lyrics for acoustic guitar and electric guitar. Tablatures and chords are parodies/interpretations of the original songs. You may use it for private study, scholarship, research or language learning purposes only