» » »

Unsigned, The Torn Soldiers - Wind In The Willows Bass tabs (ver.1)

Artists:  A B C D E F G H I J K L M N O P Q R S T U V W X Y Z # 

The Torn Soldiers - Wind In The Willows Bass tabs (ver.1)

Unsigned Tabs
 Rating:
4/5 (4 votes)
The Torn Soldiers - Wind In The Willows lessons Tabs too difficult? Try these video lessons and learn fast
1
                Artist - The Torn Soldiers
Song - Wind In The Willows
For - Bass
~~~~~~~~~~~~~~~~~~~~~~~~~~~~~~~~~~~~~~~~~~~

/-----------------------------------------------
/-----------9---------------------------------8-
/-------10-9--------10-9-10-9-10-9-10----10-9---
/-----10---------10--------------------10-------

/--------------------------------------------------------
/-------------------------------11-----------------------
/------10-9-10-9-10-9-10----10-9--------10-9-10-9-10-9-10
/----10-------------------10----------10-----------------

/----------------------
/----------------------
/-------10-9----10-8---
/----10------10------8-

Chorus: (X3)

/----------1010--999-9-9-9--88
/---7-7-7---------------------
/-----------------------------
/-----------------------------
(X1)
/---------1010-
/---7-7-7------
/--------------
/--------------
~~~~~~~~~~~~~~~~~~~~~~~~~~~~~~~~~~~~~~~~~~~~~~~~~~~~

Notes For TheAnarchyBassman : Yes i know there simple riffs, but give me a break! its my first one!
            
Submit corrections

comments powered by Disqus
↑ Back to top | Unsigned Bass for The Torn Soldiers - Wind In The Willows. Lyrics for acoustic guitar and electric guitar. 1 Tablatures and chords are parodies/interpretations of the original songs. You may use it for private study, scholarship, research or language learning purposes only