>
 >
The Silence - Rock Paper Scissors

The Silence - Rock Paper Scissors Guitar Tabs

Unsigned - The Silence - Rock Paper Scissors chords, tabs, tablatures, lyrics

Guitar lessons | Add/correct | Request | Top 50 tabs Artists:  A B C D E F G H I J K L M N O P Q R S T U V W X Y Z 0-9

The Silence - Rock Paper Scissors Guitar Tabs – Unsigned

CD, Sheet music, Poster

Do you like The Silence - Rock Paper Scissors? Share with your friends now
Tabs

Tuning: Standard (EADG)

Intro

      A5              x2 G5               x2          
G--|---------x-x//7-6-----------x-x//5-4----|
D*-|--7--7-7----------7--5--5-5----------5--|
A*-|--7--7-7-------------5--5-5-------------|
E--|--5--5-5-------------3--3-3-------------|

      A5              x2 G5               x2
G--|---------x-x//7-6-----------x-x//5-4----|
D*-|--7--7-7----------7--5--5-5----------5--|
A*-|--7--7-7-------------5--5-5-------------|
E--|--5--5-5-------------3--3-3-------------|

      A5                 B
G--|---------x-x//7-6-----------x-x//9-8----|
D*-|--7--7-7----------7--9--9-9----------9--|
A*-|--7--7-7-------------9--9-9-------------|
E--|--5--5-5-------------7--7-7-------------|

      A5                 EMin
G--|---------x-x//7-6-----------------------|
D*-|--7--7-7----------7---------------------|
A*-|--7--7-7-------------2-2-2-2-2-2-2-2----|
E--|--5--5-5-------------0-0-0-0-0-0-0-0----|

Verse

      A5             x2 G5              x2
G--|--------------------------------------|
D*-|--7--7-7------------5--5-5------------|
A*-|--7--7-7-7-7-7-7-7--5--5-5-5-5-5-5-5--|
E--|--5--5-5-5-5-5-5-5--3--3-3-3-3-3-3-3--|

      A5             x2 G5              x2
G--|--------------------------------------|
D*-|--7--7-7------------5--5-5------------|
A*-|--7--7-7-7-7-7-7-7--5--5-5-5-5-5-5-5--|
E--|--5--5-5-5-5-5-5-5--3--3-3-3-3-3-3-3--|

      A5                 B
G--|----------------------------------------|
D*-|--7--7-7-------------9--9-9-------------|
A*-|--7--7-7-7-7-777777--9--9-9-9-9-999999--|
E--|--5--5-5-5-5-555555--7--7-7-7-7-777777--|
                alternate          

      A5                 EMin
G--|--------------------------------------|
D*-|--7--7-7------------------------------|
A*-|--7--7-7-7-7-777777--2-2-2-2-2-2-2-2--|
E--|--5--5-5-5-5-555555--0-0-0-0-0-0-0-0--|
                         palm mute------|

Pre-Chorus

      A5              A5                A5                A5
G--|------------7--|-----------5h7---|------------7----|------x-x//7-6----|
D*-|--7--7--5-7----|--7--7--5-7---7--|--7--7--5-7--77--|--7--7---------7--|
A*-|--7--7---------|--7--7-----------|--7--7-----------|--7--7------------|
E--|--5--5---------|--5--5-----------|--5--5-----------|--5--5------------|

Chorus

      A5      D5      G5      D5      A5      D5      G5      D5
G--|----------7-7-7-|---------7-7-7-|---------7-7-7-|---------7-7-7-|
D*-|--7--7-7-77-7-7-|-5--5-5-57-7-7-|-7--7-7-77-7-7-|-5--5-5-57-7-7-|
A*-|--7--7-7-75-5-5-|-5--5-5-55-5-5-|-7--7-7-75-5-5-|-5--5-5-55-5-5-|
E--|--5--5-5-5------|-3--3-3-3------|-5--5-5-5------|-3--3-3-3------|

      A5      D5      B       E5      A5      D5      EMin
G--|----------7-7-7-|---------9-9-9-|---------7-7-7-|-----------------|
D*-|--7--7-7-77-7-7-|-9--9-9-99-9-9-|-7--7-7-77-7-7-|-----------------|
A*-|--7--7-7-75-5-5-|-9--9-9-97-7-7-|-7--7-7-75-5-5-|-2-2-2-2-2-2-2-2-|
E--|--5--5-5-5------|-7--7-7-7------|-5--5-5-5------|-0-0-0-0-0-0-0-0-|
                                                      palm mute------|

Verse x1
Pre-Chorus x1 (w/variations)
Chorus x1

Bridge

     A5       A5       A5       A5
G--|-------------------------------------|
D*-|-7--------7--------7--------7--------|
A*-|-7--------7--------7--------7--------|
E--|-5--------5--------5--------5--------|

Outro (w/ad.vocals)

G--|--------------------------|
D*-|--------------------------|repeat x4
A*-|---------------------3-3--|
E--|-5--3-55-3-55-3-55-3------|

G--|---------------------5-5--|
D*-|-7--5-77-5-77-5-77-5-5-5--|repeat x4
A*-|-7--5-77-5-77-5-77-5-3-3--|
E--|-5--3-55-3-55-3-55-3------|

G--|---------------------5-5--|
D*-|-7--5-77-5-77-5-77-5-5-5--|repeat x2
A*-|-7--5-77-5-77-5-77-5-3-3--|
E--|-5--3-55-3-55-3-55-3------|
     palm mute---------|

G--|---------------------5-5--|
D*-|-7--5-77-5-77-5-77-5-5-5--|repeat x6
A*-|-7--5-77-5-77-5-77-5-3-3--|
E--|-5--3-55-3-55-3-55-3------|

     A5              A5
G--|-----7----6----|---|
D*-|-7-------------|-7-|creshendo on last A5
A*-|-7-------------|-7-|
E--|-5-------------|-5-|





Comments


Popular Unsigned tabs & chords
Attic - Missing Illusion Bass Tabs
Byk9 - Wake Up Bass Tabs
Giant Caterpillar-Lords Of Hell Bass Tabs
Sacred Soul- Funk Is Not Dead Bass Tabs
System Flatline - Trapped Bass Tabs
Attention Def - The Poser Anthem Tabs
Doubleopunk - Lost Authority Tabs
Floor 13 - I Tabs
Just A Number - Creative Tabs
Levy Grind-Tell Me Tabs


Song lyrics



↑ Back to top | Tablatures and chords are parodies/interpretations of the original songs. You may use it for private study, scholarship, research or language learning purposes only
© 2014 AZChords.com Contact us | Privacy policy | DMCA | Add/correct tabs | Request tabs | Top 50 tabs