» » »

The Shane Jones Band - Open Road Tabs (ver.1)

Artists:  A B C D E F G H I J K L M N O P Q R S T U V W X Y Z # 

The Shane Jones Band - Open Road Tabs (ver.1)

Unsigned
Rating:
0/5 (0 votes)

Hard to play? Try these video lessons and learn fast.
                OPEN ROAD- The Shane Jones Band

Intro:
Chords:

G                  D                Em     Em
////              ////              ////   ////

------------15-----22---------12--------3-----10-------0--------0--------------------
----------------20--------15---------20----20-------15----20b------------------------
---------------------3------------9---------------------------------4-------------------------------------------------------------------------------------------------------------------------------------------------------------------------------------------------------------------------------------------------------------------------------

Main Riff (Repeat 4 Times)
---------------------------3------10--------0------------------------------------------------3-----------10-------0--------------------3-------10-------0-----------------

-------------------------15-----22--------12------------------------------------------------15----------22-------12--------------------15---------22--------12----------------------------------------------------------------------------------------------------------------------------------------------------------------------------------------------------------------------------------------------------------------------------------------------------------------------------------------------------------------

Play some rhythm through the lyrics:
G             D            Em


Solo: (Repeat 12 Times)
------------9-------7-9-7-9-11-13-15-s20---------------------------12----------12-3-9
-----------------------------------------18-15-18-15-18-12-15-18-------3-10-0----------12-15-22--------------------------------------------------------1-------------------------------4-3-6---------------------------------------------------------------------------------------------------------------------------------------------------------------------------------------------------------------------------------------------

---22-15-12-15-22-15-12-22-20-20-20-18-18-14-12------------11-9-8-10----------------------------------------------------------------5-3-5-12-0-------------------------------------------------------------------------------------------------22-16-11-12--------------------------------------------------------------------------------------------------------------------------------------------------------------------------------------------------------------------------------------------------------------------

Then This
--------12-12-15-15-12-15-12-22-18-11-11-9-7-9---------------------------------------------------------------------------------------12-12-15-4-4-11-12-15-22---------------------------------------------------------------------------------------22-19-22------------------------------------------------------------------------------------------------------------------------------------------------------------------------------------------------------------------------------------------------------------------

7:43 (Repeat 12 Times)
------------------------------------
--------12--15--12------------------
------------------------------------
------------------------------------
------------------------------------
------------------------------------

Then at 7:51 (Repeat 12 Times)
--------15--18--15------------------
------------------------------------
------------------------------------
------------------------------------
------------------------------------
------------------------------------

Then at 7:59 (Repeat 24 Times)
----------22-19-22------------------
------------------------------------
------------------------------------
------------------------------------
------------------------------------
------------------------------------

8:15
----------12------------------------12------------12-------------------------------------------------------2-------------------8-----------8------------------------------

At 8:40 Play some rhythm and close out the song with the last two verses
            
Hard to play? Try these video lessons and learn fast. | Correct




comments powered by Disqus
↑ Back to top | Tablatures and chords are parodies/interpretations of the original songs. You may use it for private study, scholarship, research or language learning purposes only