» » »

The Second Bernok Song Bass tabs (ver.1)

Artists:  A B C D E F G H I J K L M N O P Q R S T U V W X Y Z # 

The Second Bernok Song Bass tabs (ver.1)

Unsigned
Rating:
0/5 (0 votes)

Hard to play? Try these video lessons and learn fast.
                this tab is posted by: bernok


verse
G------5---5--3---|------3----3----|
D----3---5--------|----3---5----3--|
A-----------------|----------------|
E--3--------------|--3-------------|


pre-chorus
G------5---5----0--|
D----3---5---3-----|
A------------------|
E--3---------------|


chorus
G--0--0-3-5-----3-5-0---------------------------|
D-----------5-3--------0-0-0-0---------3-3-3-3--|
A------------------------------3-3-3-3----------|
E-----------------------------------------------|
            
Hard to play? Try these video lessons and learn fast. | Correct




comments powered by Disqus
↑ Back to top | Tablatures and chords are parodies/interpretations of the original songs. You may use it for private study, scholarship, research or language learning purposes only