» » »

Unsigned, The Rooftop Divers - Rockin Through Bass tabs (ver.1)

Artists:  A B C D E F G H I J K L M N O P Q R S T U V W X Y Z # 

The Rooftop Divers - Rockin Through Bass tabs (ver.1)

Unsigned Tabs
 Rating:
4/5 (4 votes)
The Rooftop Divers - Rockin Through lessons Tabs too difficult? Try these video lessons and learn fast
                Intro
G|------|
D|------|
A|-19/7-|
E|------|

Verse x4
G|---------------------------------|
D|---6-9-6-----------------7-5-4-2-|
A|-7---------6-9-6---4-7-4---------| 
E|---------7-------5---------------|

Chorus
G|---5-3h5---------7-5h7---------5-3h5------------------------|
D|---------5-3-0---------7-5-0---------5-3-0--5-5-5-5-3-3-3-3-|
A|-3-------------5-------------3------------------------------|
E|------------------------------------------------------------|

G|---5-3h5---------7-5h7---------5-3h5----------------------|
D|---------5-3-0---------7-5-0---------5-3-0--5-5----3-3----|
A|-3-------------5-------------3-------------------------3~-|
E|----------------------------------------------------------|

Outro
G|---------------------------------|
D|---6-9-6-----------------7-5-4-2-|
A|-7---------6-9-6---4-7-4---------| 
E|---------7-------5---------------|

G|-------------------------|
D|---6-9-6-----------------|
A|-7---------6-9-6---------| 
E|---------7-------5-5-5-5-|

G|---------------------------------|
D|---6-9-6-----------------7-5-4-2-|
A|-7---------6-9-6---4-7-4---------| 
E|---------7-------5---------------|

G|----------------------------|
D|---6-9-6--------------------|
A|-7---------6-9-6---------7~-| 
E|---------7-------5-5-5-5----|

THE END
            
Submit corrections

comments powered by Disqus
↑ Back to top | Unsigned Bass for The Rooftop Divers - Rockin Through. Lyrics for acoustic guitar and electric guitar. Tablatures and chords are parodies/interpretations of the original songs. You may use it for private study, scholarship, research or language learning purposes only