» » »

Unsigned, The Rad Tomcats - Free Me Bass tabs (ver.1)

Artists:  A B C D E F G H I J K L M N O P Q R S T U V W X Y Z # 

The Rad Tomcats - Free Me Bass tabs (ver.1)

Unsigned Tabs
 Rating:
4/5 (4 votes)
The Rad Tomcats - Free Me lessons Tabs too difficult? Try these video lessons and learn fast
                Play it fast
            Intro
G----------------------------------------------------------------------------------------
D----------------------------------------------------------------------------------------
A-3-----------------5------------------8------------------10--------------------------- x 2
E----------------------------------------------------------------------------------------
             Verse
G----------------------------------------------------------------------------------------
D----------------------------------------------------------------------------------------
A-3-3-3-3-3-3-3-0-5-5-5-5-5-5-5-3-8-8-8-8-8-8-8-5-10-10-10-10-8-8-8-8------ x 2
E----------------------------------------------------------------------------------------
          Chorus
G----------------------------------------------------------------------------------------
D-7-7-7-7-7-7-7-9-5-5-5-5-5-5-5-7-3-3-5-3-3-5-3-3-5-3-3-5--------------------
A----------------------------------------------------------------------------------------x 2
E----------------------------------------------------------------------------------------
        Interlude
G-------------------------------------5-----5---5-----7----7-7------------------------
D-----5-----5—5-----7----7—7-3-3—3-3---3---5-5—5-5-5-------------------------
A-3-3—3-3—3---5-5—5-5—5---------------------------------------------------------x 3
E----------------------------------------------------------------------------------------

G-------------------------------------5-----5---5------9--------5---------------------
D-----5-----5—5-----7----7—7-3-3—3-3---3---7-7----7-3-3-----------------------
A-3-3—3-3—3---5-5—5-5—5---------------------------------------------------------x 1
E----------------------------------------------------------------------------------------
         Outro
G----------------------------------------------------------------------------------------
D-----------------------------------------------------------------------------------------
A-3-3-3-3-3-3-3-0-5-5-5-5-5-5-5-3-8-8-8-8-8-8-8-5-10—abrupt stop-------------x 1
E------------------------------------------------------------------------------------------

Order
Intro
Verse
Chorus
Verse
Chorus
Chorus
Verse
Chorus
Chorus
Interlude
Outro
            
Submit corrections

comments powered by Disqus
↑ Back to top | Unsigned Bass for The Rad Tomcats - Free Me. Lyrics for acoustic guitar and electric guitar. Tablatures and chords are parodies/interpretations of the original songs. You may use it for private study, scholarship, research or language learning purposes only