» » »

Unsigned, The Posers - Self Esteem Bass tabs (ver.1)

Artists:  A B C D E F G H I J K L M N O P Q R S T U V W X Y Z # 

The Posers - Self Esteem Bass tabs (ver.1)

Unsigned Tabs
Rating:
0/5 (0 votes)
The Posers - Self Esteem lessons Tabs too difficult? Try these video lessons and learn fast
                The Posers
'Self Esteem'
Bass

-------------88888-8--88888-8--88888-8--88888-8------------
Verse (1x)

--9-9-10--9-9-10--9-9-10--9-9-10--9-9-10--9-9-10------------
Bridge  (1x)

-------------88888-8--88888-8--88888-8--88888-8------------
Verse (1x)

--0-0-4--0-0-0--0-0-4--0-0-0--0-0-4--0-0-0--0-0-4-4-0-0----
Chorus (2x)

-------------88888-8--88888-8--88888-8--88888-8------------
Verse (1x)

--9-9-10--9-9-10--9-9-10--9-9-10--9-9-10--9-9-10------------
Bridge  (1x)

-------------88888-8--88888-8--88888-8--88888-8------------
Verse (1x)

-------------88888-8--88888-8--88888-8--88888-8------------
Verse (1x)

--0-0-4--0-0-0--0-0-4--0-0-0--0-0-4--0-0-0--0-0-4-4-0-0----
Chorus (2x)
            

comments powered by Disqus
↑ Back to top | Unsigned Bass for The Posers - Self Esteem. Lyrics for acoustic guitar and electric guitar. Tablatures and chords are parodies/interpretations of the original songs. You may use it for private study, scholarship, research or language learning purposes only