» » »

Unsigned, The Posers - A New Hate Bass tabs (ver.1)

Artists:  A B C D E F G H I J K L M N O P Q R S T U V W X Y Z # 

The Posers - A New Hate Bass tabs (ver.1)

Unsigned Tabs
 Rating:
4/5 (4 votes)
The Posers - A New Hate lessons Tabs too difficult? Try these video lessons and learn fast
                The Posers
'A New Hate'
Bass


---------------------------------------------
---------------------------------------------
---------------------------------------------
-0-0--3--0-0--1--0-0--2--0-0--4-4--
Intro (5x)

---------------------------------------------
---------------------------------------------
---------------------------------------------
---------0-0-0-0-0-0-1-2---------------
Verse Pt.1 (5x)

---------------------------------------------
---------------------------------------------
---------------------------------------------
-----1-2-1-2-1-2-1-2-1-2-------------
Verse Pt.2 (2x)

---------------------------------------------
---------------------------------------------
---------------------------------------------
-0-0--3--0-0--1--0-0--2--0-0--4-4--
Chorus (5x)

---------------------------------------------
---------------------------------------------
---------------------------------------------
---------0-0-0-0-0-0-1-2---------------
Verse Pt.1  (5x)

---------------------------------------------
---------------------------------------------
---------------------------------------------
-----1-2-1-2-1-2-1-2-1-2-------------
Verse Pt.2 (2x)

---------------------------------------------
---------------------------------------------
---------------------------------------------
-0-0--3--0-0--1--0-0--2--0-0--4-4--
Chorus (5x)

---------------------------------------------
---------------------------------------------
---------------------------------------------
---------0-0-0-0-0-0-1-2---------------
Solo Pt.1 (5x)


---------------------------------------------
---------------------------------------------
---------------------------------------------
-----1-2-1-2-1-2-1-2-1-2-------------
Solo Pt.2  (2x)

---------------------------------------------
---------------------------------------------
---------------------------------------------
-0-0--3--0-0--1--0-0--2--0-0--4-4--
Chorus (5x)

---------------------------------------------
---------------------------------------------
---------------------------------------------
-0-0--3--0-0--1--0-0--2--0-0--4-4--
Outro (5x)
            
Submit corrections

comments powered by Disqus
↑ Back to top | Unsigned Bass for The Posers - A New Hate. Lyrics for acoustic guitar and electric guitar. Tablatures and chords are parodies/interpretations of the original songs. You may use it for private study, scholarship, research or language learning purposes only