>
 >
The Neverhood - A Familar Feeling

The Neverhood - A Familar Feeling Guitar Tabs

Unsigned - The Neverhood - A Familar Feeling chords, tabs, tablatures, lyrics

Guitar lessons | Add/correct | Request | Top 50 tabs Artists:  A B C D E F G H I J K L M N O P Q R S T U V W X Y Z 0-9

The Neverhood - A Familar Feeling Guitar Tabs – Unsigned

CD, Sheet music, Poster

Do you like The Neverhood - A Familar Feeling? Share with your friends now
Tabs
The Neverhood - A Familiar Feeling/ wrote by Rod and Clint-o

 ^   = Down stroke
 *   = harmonic

intro (acoustic)   riff 1
E/-----^0-0-------^0-0---------^0-0--------^0-0--------/
B/-----^0-0-------^0-0---------^0-0--------^0-0--------/
G/-----^0-0-------^0-0-------2-^2-2------0-^0-0--------/
D/---2-----------0----------2-----------2--------------/
A/--2-----------2----------0-----------3---------------/
E/-0-----------3---------------------------------------/  

E         G        Am              C
A familar feeling...creeps down my spine.

E             G          Am        C
Another dream lost in time.

E            G    Am             C
The voices behind me................

E          G          Am        C
Are saying its only a matter of time.

chorus (over-drive on acoustic)   
E/----------------------------------------------------/
B/----------------------------------------------------/
G/--------------------2-2-2-2-2-2-22------------------/
D/-2-2-2-22-2-2-2-2-X-2-2-2-2-2-2-22------------------/
A/-2-2-2-22-2-2-2-2-X-0-0-0-0-0-0-00--------^3--------/
E/-0-0-0-00-0-0-0-0-X---------------------------------/  

solo
E/-12---12-12-12----12--10-10-101010-10-10-101010-----/
B/---12---------12-------7--7--7-7-7--7--7--7-7-7-----/
G/-----9----------9-----------------------------------/
D/----------------------------------------------------/
A/----------------------------------------------------/
E/----------------------------------------------------/

E         G        Am              C
A familar feeling...creeps down my spine.

E             G          Am        C
Another dream lost in time.

E            G    Am             C
The voices behind me................

E          G          Am        C
Are saying its only a matter of timmmmmmmmme...................
...............................................................
intro/riff 1  x2

riff 1        x4

chorus        X4

riff 1        x6

chorus        X4

solo          x2

chorus        X4  

riff 1        X4        IF THIS SONG SOUNDS DECEND ENOUGH, KEEP CHECKING MP3.COM
                        FOR THIS TO HEAR IT FROM OUR BAND, THE NEVERHOOD!!!!!!!





Comments


Popular Unsigned tabs & chords
Audio Mayhem Project - Moment Of Glory Bass Tabs
Grillin By My Lonesome Bass Tabs
Homeless Hobos - Play The Show Bass Tabs
Animosity - Erics Riffs Tabs
Bad N3wz - Rock Till We Die Tabs
Blues Tabs
Darker Than Ink - Pray Tabs
Edwardshor-Draw Your Number Tabs
Into The Woods With Juliet-If You Go Tabs
Kill The Wise - Another Smile Falls Tabs


Song lyrics



↑ Back to top | Tablatures and chords are parodies/interpretations of the original songs. You may use it for private study, scholarship, research or language learning purposes only
© 2014 AZChords.com Contact us | Privacy policy | DMCA | Add/correct tabs | Request tabs | Top 50 tabs