» » »

Unsigned, The Motive - Venus Bass tabs (ver.1)

Artists:  A B C D E F G H I J K L M N O P Q R S T U V W X Y Z # 

The Motive - Venus Bass tabs (ver.1)

Unsigned Tabs
 Rating:
4/5 (4 votes)
The Motive - Venus lessons Tabs too difficult? Try these video lessons and learn fast
                Yea bass tab!!!!
Bassist - Jonny Hagan
This is one of the tracks off their new album the road to jaganism

Intro
G------10---------8---------6---------8----------------------------------------
D---8-8--8-----6-6-6-----4-4-4-----6-6-6---------------------------------------
A------------------------------------------------------------------------------
E------------------------------------------------------------------------------

Verse
G---10--x8---6--x4---8--x4-----------------------------------------------------
D---8--------4-------6---------------------------------------------------------
A------------------------------------------------------------------------------
E------------------------------------------------------------------------------

Chrous
G------------------------------------------------------------------------------
D---88888888---44444444---88888888---------------------------------------------
A------------------------------------------------------------------------------
E------------------------------------------------------------------------------

Thats pretty much it, go guitar tab for the actual order.
Its p**s so learn it nice tune
            
Submit corrections

comments powered by Disqus
↑ Back to top | Unsigned Bass for The Motive - Venus. Lyrics for acoustic guitar and electric guitar. Tablatures and chords are parodies/interpretations of the original songs. You may use it for private study, scholarship, research or language learning purposes only