» » »

Unsigned, The Moshmellows - Broken In Bass tabs (ver.1)

Artists:  A B C D E F G H I J K L M N O P Q R S T U V W X Y Z # 

The Moshmellows - Broken In Bass tabs (ver.1)

Unsigned Tabs
 Rating:
4/5 (4 votes)
The Moshmellows - Broken In lessons Tabs too difficult? Try these video lessons and learn fast
                Broken In For Breaking Up – By The Moshmellows
Intro:
G5--------------------------------------------
D-5----------5--------------------------------
A--5-3---3----3---3—3—5------3---------
E--------3--------3------3---3p1----1-2-3--

Post Chorus:
G------------------------
D------------------------           x 4
A3-3--------------------
E----1-1—2-2—1-1-2

Verse:
G-------------------------------------------------
D—5-2--------------------------------5-3-2----        x 2
A3-------0-1-3-----5-3-2-3—5-3-2-------5-3
E--------1------1—3----------------------------

Pre-Chorus:
G-----------------7-5-4----
D—2-3--------5-------7-5           x 2
A-2----3-----5-------------
E0-------1—3-------------

Chorus: 
G----------------------------------------------------------------------------------
D----------------------------------------------------------------------------------    x 2
A3-3-3-3-3-3-3-3---------------------------------------------------------------
E--------------------3-3-3-3-3-3-3-3—5-5-5-5-5-5-5-5—1-1-1-1-1-1-1-1

Bridge:
G------------------------------------------------------------------------------------
D------------------------------------------------------------------------------------  x 2
A0-0-0-0-0-0-0-0--------------------3-3-3-3-3-3-3-3-------------------
E--------------------1-1-1-1-1-1-1-1--------------------3-3-3-3-3-3-3-3

G-------------------------------------------------------
D-------------------------------------------------------  hold out first 2 notes… into chorus
A3------------------------------------------------------
E-------3------5-5-5-5-5-5-5-5—1-1-1-1-1-1-1-1





Order:
  Intro
Post Chorus
  Verse
Post Chorus
  Verse
Pre-Chorus
  Chorus
Post Chorus
  Verse
Pre-Chorus
  Chorus
Bridge
  Chorus
Post Chorus
            
Submit corrections

comments powered by Disqus
↑ Back to top | Unsigned Bass for The Moshmellows - Broken In. Lyrics for acoustic guitar and electric guitar. Tablatures and chords are parodies/interpretations of the original songs. You may use it for private study, scholarship, research or language learning purposes only