» » »

Unsigned, The Junction - "Ya Mum" Tabs (ver.1)

Artists:  A B C D E F G H I J K L M N O P Q R S T U V W X Y Z # 

The Junction - "Ya Mum" Tabs (ver.1)

Unsigned Tabs
 Rating:
4/5 (4 votes)
The Junction -  Tabs too difficult? Try these video lessons and learn fast
1
                Ya mum by the junction
Music by:
Ellison 
Dicko
Menzies
Words by:
Tommy 

Intro
E--------------------------------------------------------------
B--------------------------------------------------------------
G--------------------------------------------------------------
D--2222222222222222--------------------------------------------
A--2222222222222222--------------------------------------------
E--0000000000000000--------------------------------------------
p.m--------------------)

Verse
E--------------------------------------------------------------
B--------------------------------------------------------------
G--------------------------------------------------------------
D--22--5-7--55-55-7-9------------------------------------------
A--22--5-7--55-55-7-9------------------------------------------
E--00--7-5--33-33-5-7------------------------------------------x8

Pre chorus
E--------------------------------------------------------------
B--------------------------------------------------------------
G--777---------------------------------------------------------
D--777-----------555-------------------------------------------
A--555---5-4-3-0-555-0-3-4-5-----------------------------------
E----------------333-------------------------------------------x2

Chorus
E--------------------------------------------------------------
B--------------------------------------------------------------
G---7777777----------------------------------------------------
D---7777777--5555555-------------------------------------------
A---5555555--5555555-------------------------------------------
E------------3333333-------------------------------------------x4

Interlude 1
E--------------------------------------------------------------
B--------------------------------------------------------------
G--------------------------------------------------------------
D-2222222-5555555-7777777-9999999------------------------------
A-2222222-5555555-7777777-9999999------------------------------
E-0000000-3333333-5555555-7777777------------------------------
p.m-------------------------------------------)

E--------------------------------------------------------------
B--------------------------------------------------------------
G--------------------------------------------------------------
D-2222222-5555555-----------5-7b8--9-7-------------------------
A-2222222-5555555------5-7---------------9-7-------------------
E-0000000-3333333-5-7------------------------9-7---------------




Interlude 2

E--------------------------------------------------------------
B--------------------------------------------------------------
G--------------------------------------------------------------
D--------------------------------------------------------------
A--5555----------------4444------------------------------------
E ---------5555-8888-------------------------------------------

E--------------------------------------------------------------
B--------------------------------------------------------------
G--------------------------------------------------------------
D--------------------------------------------------------------
A--5555--------8-----------------------------------------------
E---------5555-------------------------------------------------

E--------------------------------------------------------------
B--------------------------------------------------------------
G--7777---------------6666-------------------------------------
D--7777-7777----------6666-------------------------------------
A--5555-7777-10101010-4444-------------------------------------
E ------5555-8-8-8-8-------------------------------------------

That’s it 
 The song goes: 
Intro
Verse
Pre chorus
Chorus
Verse
Pre chorus
Chorus
Interlude 1
Verse with no words only played x4
Pre Chorus
Chorus
Interlude 2
Chorus 
            
Submit corrections

comments powered by Disqus
↑ Back to top | Unsigned Tabs for The Junction - "Ya Mum". Lyrics for acoustic guitar and electric guitar. 1 Tablatures and chords are parodies/interpretations of the original songs. You may use it for private study, scholarship, research or language learning purposes only