>
 >
The Fruit Corner - Cream

The Fruit Corner - Cream Guitar Tabs

Unsigned - The Fruit Corner - Cream chords, tabs, tablatures, lyrics

Guitar lessons | Add/correct | Request | Top 50 tabs Artists:  A B C D E F G H I J K L M N O P Q R S T U V W X Y Z 0-9

The Fruit Corner - Cream Guitar Tabs – Unsigned

CD, Sheet music, Poster

Do you like The Fruit Corner - Cream? Share with your friends now
Tabs
This was good at battle of the bands, the fruit corner song that was pretty popular.

Intro on bass or guitar

E ----------------------------------------------------------------------------------------
B----------------------------------------------------------------------------------------
G-----------------------------------------------------------------------------------------
D----------------------------------------------------------------------------------------
A----------22𦴖2-------33---633-------44-----7---44--------224---22
E   --0-0-----------------44-----------------55---------------------00---------------

Then chords throughout whole of song:

       E5                       G#5                A5           E5
E---------------------------------------------------------
B---------------------------------------------------------
G---------------------------------------------------------
D2--------------------6--------------7-------------2
A2--------------------6--------------7-------------2
E  0--------------------4---------------5-------------0
   / / / / / / / /            / / / / / / / /    / / / / / / / /    / / / / / / / /      Rhythm
Lyrics

Verse
When you see things like I do
Everything is just a blur
Theres something on my face
And I quite like the taste
It was on the last day of term
I was eating a mince pie
When someone got some cream
Slapped it in my eye

Chorus
Cream on my face
I like the taste

Verse 2
Im screaming like a girl
It made me want to hurl
With this cream on my face
Im just a big disgrace
Why do they always pick on me
Im nearly sixfoot three
I should be the hardest here
But im just a lanky queer
Chorus
Cream on my face
I like the taste

Solo

Either a pentatonic scale beginning on E (fret 7, A string)
Or

E--------------------------------------------------
B--------------------------------------------------
G𨖸----6----4-----9----11b12----9-----9
D-------------------------------------------------
A-------------------------------------------------
E-------------------------------------------------

Or just improvise





Comments


Popular Unsigned tabs & chords
Bass Riffs By Kyle Woods Bass Tabs
Demigod - December Bass Tabs
Names Are Overrated - Once Again Bass Tabs
Reluctant-Betrayed Bass Tabs
The Posers - A New Hate Bass Tabs
The Zeeman Effect - One Year Later Bass Tabs
Bad N3wz - Rock Till We Die Tabs
Carpe Diem-Ballad Of The G-Funk Meltdown Tabs
Delorean-So Be It Tabs
Fading Out - We Know Its You Tabs


Song lyrics



↑ Back to top | Tablatures and chords are parodies/interpretations of the original songs. You may use it for private study, scholarship, research or language learning purposes only
© 2014 AZChords.com Contact us | Privacy policy | DMCA | Add/correct tabs | Request tabs | Top 50 tabs