» » »

Thee Oppressed - Pleasantly Unemployment Tabs (ver.1)

Artists:  A B C D E F G H I J K L M N O P Q R S T U V W X Y Z # 

Thee Oppressed - Pleasantly Unemployment Tabs (ver.1)

Unsigned
Rating:
0/5 (0 votes)

Hard to play? Try these video lessons and learn fast.
                This is a badass song 

Pleasantly Unemployed by Thee Oppressed

Intro x2
e--------------------------------------------|
b--------------------------------------------|
g------9------7-------5-----7----------------|
d----9------7-------5-----5------------------|
a--7------7-------3-----5--------------------|
E--------------------------------------------|

PreChorus and Chorus   x4

     (x8)   (x4)   (x3)
d-----9------5------7-----------------------|
a-----7------3------5-----------------------|
E-------------------------------------------|


verse x2
e--------------------------------------------------------|
b--------------------------------------------------------|
g---------9------7-------------5--------7----------------|
d-------9------7---7---------5--------5---5--------------|
a-----7------7-------7-----3--------5-------5------------|
E--------------------------------------------------------|

Song Structure
Intro x1
Prechorus x4
Chorus x4
verse x2
prechorus x4
chorus x4
verse x2
prechorus x4
chorus x4
bridge (NO GUITAR)
Chorus x4
Outro(Intro just slower)
            
Hard to play? Try these video lessons and learn fast. | Correct




comments powered by Disqus
↑ Back to top | Tablatures and chords are parodies/interpretations of the original songs. You may use it for private study, scholarship, research or language learning purposes only