>
 >
The Empty - Not Another Garage Band

The Empty - Not Another Garage Band Guitar Tabs

Unsigned - The Empty - Not Another Garage Band chords, tabs, tablatures, lyrics

Guitar lessons | Add/correct | Request | Top 50 tabs Artists:  A B C D E F G H I J K L M N O P Q R S T U V W X Y Z 0-9

The Empty - Not Another Garage Band Guitar Tabs – Unsigned

CD, Sheet music, Poster

Do you like The Empty - Not Another Garage Band? Share with your friends now
Tabs
Guitars:

Riff A: Play 2x
E----|---------------------------------------------------------------
B----|---------------------------------------------------------------
G----|---------------------------------------------------------------
D----|---------------------------------------------------------------
A----|---------------------------------------------------------------
E----|5-5-5-5-5---3-3-3-3-3---2-2-2-2-2----1-1-1-1-0-0-0

Riff B: Play 2x
E----|0-0-0-0-0----------------------------------------------------
B----|--------------3-3-3-3-3---2-2-2-2-2---1-1-1-1-0-0-0----
G----|---------------------------------------------------------------
D----|---------------------------------------------------------------
A----|---------------------------------------------------------------
E----|---------------------------------------------------------------

Riff C:
E----|12--10-11--9-10--8-9--11-10-9-9--------------10-9--8-7-10--10-10-10-10--7--7-7-7-7-
B----|-----------------------------------------10--10-9-------------------------------------------------
G----|-----------------------------------------------------------------------------------------------------
D----|-----------------------------------------------------------------------------------------------------
A----|-----------------------------------------------------------------------------------------------------
E----|-----------------------------------------------------------------------------------------------------
Riff C (contd)
E----|9--9-9-9-9--8--8-8-8-8--7-10-10-10-10-10--8--8-8--9--9-9-9-9--7-7-7--5-5-5--3--2-1
B----|---------------------------------------------------------------
G----|---------------------------------------------------------------
D----|---------------------------------------------------------------
A----|---------------------------------------------------------------
E----|---------------------------------------------------------------
Riff D: 
E----|----19-19-15-----12-15-10-13-11-15-8-10-[(12-13-14)4x]  3x
B----|15-------------19-------------------------------------------------0
G----|---------------------------------------------------------------
D----|---------------------------------------------------------------
A----|---------------------------------------------------------------
E----|---------------------------------------------------------------
Riff E:
E----|---------------------------------------------------------------------
B----|---------------------------------------------------------------------
G----|---------------------------------------------------------------------
D----|7-7-7-7-7--5-5-5-5-5-4-4-4-4-4-3-3-3-3---2-2-2-------------
A----|7-7-7-7-7--5-5-5-5-5-4-4-4-4-4--3-3-3-3--2-2-2-------------
E----|5-5-5-5-5--3-3-3-3-3-2-2-2-2-2--1-1-1-1--0-0-0-------------2x

Riff F (same rythem as Riff A):
E----|-17-15-14-13-12------------------------------------------------
B----|-19-17-16-15-14------------------------------------------------
G----|---------------------------------------------------------------
D----|---------------------------------------------------------------
A----|---------------------------------------------------------------
E----|---------------------------------------------------------------



Order of Stuff:

Guitar 1                                              Guitar 2
Riff A                                                 Riff A
Riff A                                                 Riff A
Riff B                                                 Riff A 
Riff B                                                 Riff A (repeat as neccesary)
Riff C                                                 Riff B
Riff B                                                 Riff B
Riff B                                                 Riff D
Riff A (repeat as neccesary)              Riff B
Riff F                                                Riff F                                                 Riff E





Comments


Popular Unsigned tabs & chords
Jj - Good Friend Bass Tabs
R33b0rn - Steps Bass Tabs
Blues Riff I Made Up Tabs
Circuit 69er-Waiting Tabs
Deathmealish Song I Made Tabs
Double O Punk-Fananel Tabs
Empty Slot- Dork Tabs
Ill By Mouth-Judgment Tabs
Inspector Gadget Theme Tabs
Invalid - #1 Tabs


Song lyrics



↑ Back to top | Tablatures and chords are parodies/interpretations of the original songs. You may use it for private study, scholarship, research or language learning purposes only
© 2014 AZChords.com Contact us | Privacy policy | DMCA | Add/correct tabs | Request tabs | Top 50 tabs