» » »

The Death Of Gwen Stacy-Maxgetsinvisible Bass tabs (ver.1)

Artists:  A B C D E F G H I J K L M N O P Q R S T U V W X Y Z # 

The Death Of Gwen Stacy-Maxgetsinvisible Bass tabs (ver.1)

Unsigned
Rating:
0/5 (0 votes)

Hard to play? Try these video lessons and learn fast.
                Intro/Verse:
G-----------------<
D--------2--------<
A-----5-----2--0--<
E--2--------------<

Chorus:
G------------------------<
D------------------------<
A--5555555554------------<
E-------------333333333--<

Bridge:
G--------------------------------------<
D-------7p5----------------------------<
A--5-55-----5----2--------------4-5-7--<
E-------------33---3-7-7-77-7-5--------<

Interlude:
G-----------------------------------------<
D----------------2222---------------------<
A-----------5555------22222222-00000000---<
E--22222222-------------------------------<
            
Hard to play? Try these video lessons and learn fast. | Correct




comments powered by Disqus
↑ Back to top | Tablatures and chords are parodies/interpretations of the original songs. You may use it for private study, scholarship, research or language learning purposes only