» » »

Unsigned, The Camarillas - Why Me Bass tabs (ver.1)

Artists:  A B C D E F G H I J K L M N O P Q R S T U V W X Y Z # 

The Camarillas - Why Me Bass tabs (ver.1)

Unsigned Tabs
Rating:
0/5 (0 votes)
The Camarillas - Why Me lessons Tabs too difficult? Try these video lessons and learn fast
                G---------------------------------------------------------
D---------------------------------------------------------
A------------------33--22----------------------33--22
E-5-55/-88\--3-33-------------5-55/-88\--3-33----------

G---------------------------------------------------------
D---------------------------------------------------------
A------------------33--22---------------------33--22
E-5-55/-88\--3-33------------5-55/-88\--3-33----------

G----------------------------------------------------------------------------------
D----------------------------------------------------------------------------------
A---------------------------33--22----------------------------33--22
E-5-5-5-55--8-88888--3-3-33---------5-5-5-55--8-88888--3-3-33--------

G----------------------------------------------------------------------------------
D----------------------------------------------------------------------------------
A---------------------------33--22----------------------------33--22
E-5-5-5-55--8-88888--3-3-33---------5-5-5-55--8-88888--3-3-33--------

G----------------------------------------------------------
D----------------------------------------------------------
A-----------------33--22------------------33--22
E-5-55/-88\--3-33---------5-55/-88\--3-33------------------

G---------------------------------------------------------
D---------------------------------------------------------
A-----------------33--22------------------33--22
E-5-55/-88\--3-33---------5-55/-88\--3-33----------

G--------------------------------------------------------------------
D--------------------------------------------------------------------
A-------------------------------------------------33--22
E-5-5-5-5-5-5-5-5-8-8-8-8-8-8-8-8-3-3-3-3-3-3-3-3---------

G--------------------------------------------------------------------
D--------------------------------------------------------------------
A-------------------------------------------------33--22
E-5-5-5-5-5-5-5-5-8-8-8-8-8-8-8-8-3-3-3-3-3-3-3-3---------


G---------------------------------------------------------
D---------------------------------------------------------
A-----------------33--22------------------33--22
E-5-55/-88\--3-33---------5-55/-88\--3-33----------
 
G---------------------------------------------------------
D---------------------------------------------------------
A-----------------33--22------------------33--22
E-5-55/-88\--3-33---------5-55/-88\--3-33----------

Hope you enjoy our song.
            

comments powered by Disqus
↑ Back to top | Unsigned Bass for The Camarillas - Why Me. Lyrics for acoustic guitar and electric guitar. Tablatures and chords are parodies/interpretations of the original songs. You may use it for private study, scholarship, research or language learning purposes only