» » »

Unsigned, The Bomba Bass tabs (ver.1)

Artists:  A B C D E F G H I J K L M N O P Q R S T U V W X Y Z # 

The Bomba Bass tabs (ver.1)

Unsigned Tabs
Rating:
0/5 (0 votes)
The Bomba lessons Tabs too difficult? Try these video lessons and learn fast
                RIFF A:
G|------0---2-0-0--------------------
D|----2---3-----------3-3-2-0--------
A|--3---------------2----------------
E|----------------3------------------

RIFF B:
G|------0---2--0-0-------------------
D|----2---3---3--------3-3-2-0-------
A|--3----------------2---------------
E|-----------------3-----------------

The song is quite easy, just alterate the riffs like so:

RIFF A X2
RIFF B
RIFF A X2
RIFF B
Etc.
            

comments powered by Disqus
↑ Back to top | Unsigned Bass for The Bomba. Lyrics for acoustic guitar and electric guitar. Tablatures and chords are parodies/interpretations of the original songs. You may use it for private study, scholarship, research or language learning purposes only