» » »

Unsigned, The Accidents - Idiot Bass tabs (ver.1)

Artists:  A B C D E F G H I J K L M N O P Q R S T U V W X Y Z # 

The Accidents - Idiot Bass tabs (ver.1)

Unsigned Tabs
Rating:
0/5 (0 votes)
The Accidents - Idiot lessons Tabs too difficult? Try these video lessons and learn fast
                These tabs are very easy to play.  I’m the bass player for the band so I know how easy they are. Trust me.

It sounds better if you turn your amp up all the way.

Tune to: E, A, D, G

* = play 8 times
/ = slide up

Intro: x1
E---7---7---2---2---4---4---0---0---------------------------------
A-----------------------------------------------------------------
D-----------------------------------------------------------------
G-----------------------------------------------------------------

Intro 2: x2
E---7*---2*---4*---0*-----------------------------------------------
A-------------------------------------------------------------------
D-------------------------------------------------------------------
G-------------------------------------------------------------------

Verse: x2
E---7---7---2---2---4---4---0---0-----------------------------------
A-------------------------------------------------------------------
D-------------------------------------------------------------------
G-------------------------------------------------------------------

Chorus: x2
E---7*---2*---4*---0*-------------------------------------------------
A---------------------------------------------------------------------
D---------------------------------------------------------------------
G---------------------------------------------------------------------

Verse 2: x2
E---7---7---2---2---4---4---0---0-------------------------------------
A---------------------------------------------------------------------
D---------------------------------------------------------------------
G---------------------------------------------------------------------

Chorus: x2
E---7*---2*---4*---0*--------------------------------------------------
A----------------------------------------------------------------------
D----------------------------------------------------------------------
G----------------------------------------------------------------------

Outro: x1
E---7---7---2---2---4---4---0---0----------0---------------------------
A----------------------------------------------------------------------
D----------------------------------------------------------------------
G-------------------------------------1/-------------------------------
            
Submit corrections

comments powered by Disqus
↑ Back to top | Unsigned Bass for The Accidents - Idiot. Lyrics for acoustic guitar and electric guitar. Tablatures and chords are parodies/interpretations of the original songs. You may use it for private study, scholarship, research or language learning purposes only