» » »

The Accidentals - Travis Song Bass tabs (ver.1)

Artists:  A B C D E F G H I J K L M N O P Q R S T U V W X Y Z # 

The Accidentals - Travis Song Bass tabs (ver.1)

Unsigned
Rating:
0/5 (0 votes)

Hard to play? Try these video lessons and learn fast.
                Intro
G------------
D------------
A--5--5--5--5
E------------
Verse-
G------------------------------------------------------------------------
D-----------------------------------------2-2-2-2------------------------
A-5-5-5-5-0-0-0-0-0-0-0-0---------2-2-2-2---------4-4-4-4----------------
E-------------------------5-5-5-5-------------------------3-3-3-3-3-3-3-3

G----------------
D----------------
A----------------
E-5-5-5-5-5-5-5-5
Chorus
G-----------------1-1-1-1-1-1-1-1-3-3-3-3----------------------------------------
D-1-1-1-1-1-1-1-1-------------------------3-3-3-3-5-5-5-5-5-5-5-5-5-5-5-5-5-5-5-5
A--------------------------------------------------------------------------------
E--------------------------------------------------------------------------------
            
Hard to play? Try these video lessons and learn fast. | Correct




comments powered by Disqus
↑ Back to top | Tablatures and chords are parodies/interpretations of the original songs. You may use it for private study, scholarship, research or language learning purposes only