» » »

Unsigned, The Accidentals - Baggage Bass tabs (ver.1)

Artists:  A B C D E F G H I J K L M N O P Q R S T U V W X Y Z # 

The Accidentals - Baggage Bass tabs (ver.1)

Unsigned Tabs
Rating:
0/5 (0 votes)
The Accidentals - Baggage lessons Tabs too difficult? Try these video lessons and learn fast
                Verse
G--------------------------
D--------------------------
A-2-2-0-0---------0-0------
E---------3-3-3-3-----3-3-0
Chorus
G-------------------------
D-------------------------
A-2-2-0-0--------0-0------
E--------3-3-3-3-----3-3-0
Pre-Solo
G-------------------------------
D-------------------------------
A--2-5-2--2-5-2---2-5-2---2-5-2-
E-3-----3-------3-------3-------
Solo
G---------------------------------
D---------------------------------
A---------------------------------
E-3-3-3-3-3-3-3-3-3-3-3-3-3-3-3-3-
            

comments powered by Disqus
↑ Back to top | Unsigned Bass for The Accidentals - Baggage. Lyrics for acoustic guitar and electric guitar. Tablatures and chords are parodies/interpretations of the original songs. You may use it for private study, scholarship, research or language learning purposes only