» » »

Ten Seconds To Go - The Blvd. Bass tabs (ver.1)

Artists:  A B C D E F G H I J K L M N O P Q R S T U V W X Y Z # 

Ten Seconds To Go - The Blvd. Bass tabs (ver.1)

Unsigned
Rating:
0/5 (0 votes)

Hard to play? Try these video lessons and learn fast.
                This song is pretty easy and straight forward, so here it goes:

Intro:

G|--------------------------------------------|
D|--------------------------------------------|
A|--------------------------------------------|
E|----0-0-2-3---0-0-2-3-----------------------|

Verse:

G|--------------------------------------------|
D|--------------------------------------------|
A|----------0-3-2-0---------------------------|
E|----0-2-3---------3-------------------------|

Chorus:

G|--------------------------------------------|
D|----------------5-5-5-5-5-------------------|
A|----7-7-7-7-7-7------------5-5-5-5-5---7-5--|
E|-------------------------------------------5|

Outro:

G|--------------------------------------------|
D|--------------------------------------------|
A|--------------------------------------------|
E|----0-0-3-2--0-0-2-3--0---------------------|

this band is awesome 
krista
            
Hard to play? Try these video lessons and learn fast. | Correct




comments powered by Disqus
↑ Back to top | Tablatures and chords are parodies/interpretations of the original songs. You may use it for private study, scholarship, research or language learning purposes only