» » »

Tenacious T - Jomama Tabs (ver.1)

Artists:  A B C D E F G H I J K L M N O P Q R S T U V W X Y Z # 

Tenacious T - Jomama Tabs (ver.1)

Unsigned
Rating:
0/5 (0 votes)

Hard to play? Try these video lessons and learn fast.
                Band - Tenacious T
Song - JomAmA
Tuning - Drop D



 intro


e|---------------------------------|
b|---------------------------------| 
g|---------------------------------|
d|---------5---------------1-------|
a|-3-(x3)----(x3)--3-(x3)----(x3)--|X2
d|0-------3-------0-------1--------|


verse 1
e|------------------|
b|------------------|
g|------------------|x3
d|------------------|
a|-3-3-3-3--2-2-2-2-| 
d|3-3-3-3--2-2-2-2--| 


verse 2

e|-------------------|---------------------|
b|-------------------|---------------------|
g|-------------------|x2-------------------|
d|--5--------4-------|-----5--------1------|
a|-6--(x3)--5--(x3)--|----6--(x3)--2--(x3)-|
d|5--------4---------|---5--------1--------|



chorus
e|0--------0------0-------|---0-0-0-0-|
b|2--------1------1-------|---0-0-0-3-|
g|2-(x12)--2-(x6)-0-(x12)-|---2-2-2-2-|
d|2--------0------2-------|x2-2-2-2-2-|
a|0--------3------3-------|---0-0-0-0-|
d|0--------0------0-------|---0-0-0-0-|


outro
e|---------------------------------|
b|---------------------------------|
g|---------------------------------|
d|0-3-0--0-3-0--0-3-0h3-0h3-0------|
a|0-3-0--0-3-0--0-3-0h3-0h3-0-(x3)-|
d|0-3-0--0-3-0--0-3-0h3-0h3-0------|

e|---------------------------------|
b|---------------------------------|
g|---------------------------------|
d|0-3-0--0-3-0--0-3-0h3-0h3/-0-----|
a|0-3-0--0-3-0--0-3-0h3-0h3/-0-----|
d|0-3-0--0-3-0--0-3-0h3-0h3/-0-----|
            
Hard to play? Try these video lessons and learn fast. | Correct




comments powered by Disqus
↑ Back to top | Tablatures and chords are parodies/interpretations of the original songs. You may use it for private study, scholarship, research or language learning purposes only