» » »

Unsigned, Tarnished Apples - Alligenssa Tabs (ver.1)

Artists:  A B C D E F G H I J K L M N O P Q R S T U V W X Y Z # 

Tarnished Apples - Alligenssa Tabs (ver.1)

Unsigned Tabs
Rating:
0/5 (0 votes)
Tarnished Apples - Alligenssa lessons Tabs too difficult? Try these video lessons and learn fast
                tuning= CGCFAD
VERSE 1
-11-11-11-11-11-11-11-11--11-11-11-11-11-11-11-11-9-9-9-9-9-9-9-9--9-9-9-9-9-9-9-9
-9--9--9--9--9--9--9--9---11-11-11-11-11-11-11-11-7-7-7-7-7-7-7-7--9-9-9-9-9-9-9-9
-9--9--9--9--9--9--9--9---9--9--9--9--9--9--9--9--7-7-7-7-7-7-7-7--7-7-7-7-7-7-7-7
VERSE 2
------------------11-11-11-11-11-11-11-11------------------9-9-9-9-9-9-9-9
-9-9-9-9-9-9-9-9--11-11-11-11-11-11-11-11-7-7-7-7-7-7-7-7--9-9-9-9-9-9-9-9
-9-9-9-9-9-9-9-9--9--9--9--9--9--9--9--9--7-7-7-7-7-7-7-7--7-7-7-7-7-7-7-7
-9-9-9-9-9-9-9-9--------------------------7-7-7-7-7-7-7-7-----------------
CHORUS
-------------------------------------------------9-9-9-9-9-9-9-9
-9-9-9-9-9-9-9-9-7-7-7-7-7-7-7-7-5-5-5-5-5-5-5-5-9-9-9-9-9-9-9-9
-9-9-9-9-9-9-9-9-7-7-7-7-7-7-7-7-5-5-5-5-5-5-5-5-7-7-7-7-7-7-7-7
-9-9-9-9-9-9-9-9-7-7-7-7-7-7-7-7-5-5-5-5-5-5-5-5----------------
SOLO
-9-9-9-9-9-9-9-8-7-7-7-7-7-7-7-6--------------------------------
-9-9-9-9-9-9-9-8-7-7-7-7-7-7-7-6-9-9-9-9-9-9-9-8-7-7-7-7-7-7-7-6
---------------------------------9-9-9-9-9-9-9-8-7-7-7-7-7-7-7-6
THE SONG
VERSE 1 X2
CHORUS
VERSE 2 X2
CHORUS
SOLO
CHORUS X2
            
Submit corrections

comments powered by Disqus
↑ Back to top | Unsigned Tabs for Tarnished Apples - Alligenssa. Lyrics for acoustic guitar and electric guitar. Tablatures and chords are parodies/interpretations of the original songs. You may use it for private study, scholarship, research or language learning purposes only