» » »

Unsigned, System Flatline - Trapped Bass tabs (ver.1)

Artists:  A B C D E F G H I J K L M N O P Q R S T U V W X Y Z # 

System Flatline - Trapped Bass tabs (ver.1)

Unsigned Tabs
 Rating:
4/5 (4 votes)
System Flatline - Trapped lessons Tabs too difficult? Try these video lessons and learn fast
1
                [H = Hammer On]
[P = Pull Off]
[S = Slide]


Tuning G-D-A-E-D



Introduction Verse

Comes in after guitar plays one time of the introduction verse

G|----------------------------------------------------------------------------------|
D|----------------------------------------------------------------------------------|
A|----------------------------------------------------------------------------------|
E|----------------------------------------------------------------------------------|
D|-0---0--0-1H--1--1---3---3--3-4--4--4P----0---0--0-1H--1--1---3---3--3-4--4--4S-3-|

last note fades out



Introduction Chorus

Comes in after guitar plays once of introduction chorus

G|---------------------------------------------------------------|
D|---------------------------------------------------------------|
A|---------------------------------------------------------------|
E|---------------------------------------------------------------|
D|--0--0--0---6H--6--6S---5-5--5---0--0--0---6H--6--6---5S-5--5--|


G|---------------------------------------------------------------|
D|---------------------------------------------------------------|
A|---------------------------------------------------------------|
E|---------------------------------------------------------------|
D|--0--0--0---6H--6--6S---5-5--5---8--8--8---6S-6--6---5--5--5-6-|



Chorus

G|--------------------------------------------------------------------------------|
D|--------------------------------------------------------------------------------|
A|--------------------------------------------------------------------------------|
E|--------------------------------------------------------------------------------|
D|--0--0--6H-6S--5-5P---0--0--6H-6S--5-5P---0--0--6H-6S--5-5P---8--8S--6-6--5-5S-6|


G|--------------------------------------------------------------------------------|
D|--------------------------------------------------------------------------------|
A|--------------------------------------------------------------------------------|
E|--------------------------------------------------------------------------------|
D|--0--0--6H-6S--5-5P---0--0--6H-6S--5-5P---0--0--6H-6S--5-5P---8--8S--6-6S--5-5-5|



Verse 1

G|--------------------------------------------------------------------------------------------------|
D|--------------------------------------------------------------------------------------------------|
A|--------------------------------------------------------------------------------------------------| x3
E|--------------------------------------------------------------------------------------------------|
D|--0--0--0--0---1--1--1--1---3--3--3--3---4--4--4--4P--0--0--0--0---1--1--1--1---3--3--3--3---4S--3|



Pre-Chorus

G|--------------------------------------------------------------|
D|--------------------------------------------------------------|
A|--------------------------------------------------------------|
E|--------------------------------------------------------------|
D|---0-----------0---1----------1---0----------0---1------3---1-|



Chorus

G|--------------------------------------------------------------------------------|
D|--------------------------------------------------------------------------------|
A|--------------------------------------------------------------------------------|
E|--------------------------------------------------------------------------------|
D|--0--0--6H-6S--5-5P---0--0--6H-6S--5-5P---0--0--6H-6S--5-5P---8--8S--6-6--5-5S-6|


G|--------------------------------------------------------------------------------|
D|--------------------------------------------------------------------------------|
A|--------------------------------------------------------------------------------|
E|--------------------------------------------------------------------------------|
D|--0--0--6H-6S--5-5P---0--0--6H-6S--5-5P---0--0--6H-6S--5-5P---8--8S--6-6S--5-5-5|



Verse 2

G|--------------------------------------------------------------------------------------------------|
D|--------------------------------------------------------------------------------------------------|
A|--------------------------------------------------------------------------------------------------| x3
E|--------------------------------------------------------------------------------------------------|
D|--0--0--0--0---1--1--1--1---3--3--3--3---4--4--4--4P--0--0--0--0---1--1--1--1---3--3--3--3---4S--3|



Pre-Chorus

G|--------------------------------------------------------------|
D|--------------------------------------------------------------|
A|--------------------------------------------------------------|
E|--------------------------------------------------------------|
D|---0-----------0---1----------1---0----------0---1------3---1-|



Chorus

G|--------------------------------------------------------------------------------|
D|--------------------------------------------------------------------------------|
A|--------------------------------------------------------------------------------|
E|--------------------------------------------------------------------------------|
D|--0--0--6H-6S--5-5P---0--0--6H-6S--5-5P---0--0--6H-6S--5-5P---8--8S--6-6--5-5S-6|


G|--------------------------------------------------------------------------------|
D|--------------------------------------------------------------------------------|
A|--------------------------------------------------------------------------------|
E|--------------------------------------------------------------------------------|
D|--0--0--6H-6S--5-5P---0--0--6H-6S--5-5P---0--0--6H-6S--5-5P---8--8S--6-6S--5-5-5|


Verse 3

G|--------------------------------------------------------------------------------|
D|--------------------------------------------------------------------------------|
A|--------------------------------------------------------------------------------| x3
E|--------------------------------------------------------------------------------|
D|--0---0--0--1---1--2---3---3--3--4---4--5---0---0--0--1---1--2---3---3--3--4S--3|



Pre-Chorus

G|--------------------------------------------------------------|
D|--------------------------------------------------------------|
A|--------------------------------------------------------------|
E|--------------------------------------------------------------|
D|---0-----------0---1----------1---0----------0---1------3---1-|



Chorus

G|--------------------------------------------------------------------------------|
D|--------------------------------------------------------------------------------|
A|--------------------------------------------------------------------------------|
E|--------------------------------------------------------------------------------|
D|--0--0--6H-6S--5-5P---0--0--6H-6S--5-5P---0--0--6H-6S--5-5P---8--8S--6-6--5-5S-6|


G|--------------------------------------------------------------------------------|
D|--------------------------------------------------------------------------------|
A|--------------------------------------------------------------------------------|
E|--------------------------------------------------------------------------------|
D|--0--0--6H-6S--5-5P---0--0--6H-6S--5-5P---0--0--6H-6S--5-5P---8--8S--6-6S--5-5-5|



Interlude

G|----------------------------------------------------------------------------------|
D|----------------------------------------------------------------------------------|
A|----------------------------------------------------------------------------------| X7
E|----------------------------------------------------------------------------------|
D|---0--0--0--0---1---1--3--3--3--3---4---6---0--0--0--0---1---1--3--3--3--3---4---6|



Pre-Chorus

G|--------------------------------------------------------------|
D|--------------------------------------------------------------|
A|--------------------------------------------------------------|
E|--------------------------------------------------------------|
D|---0-----------0---1----------1---0----------0---1------3---1-|



Chorus

G|--------------------------------------------------------------------------------|
D|--------------------------------------------------------------------------------|
A|--------------------------------------------------------------------------------|
E|--------------------------------------------------------------------------------|
D|--0--0--6H-6S--5-5P---0--0--6H-6S--5-5P---0--0--6H-6S--5-5P---8--8S--6-6--5-5S-6|


G|--------------------------------------------------------------------------------|
D|--------------------------------------------------------------------------------|
A|--------------------------------------------------------------------------------|
E|--------------------------------------------------------------------------------|
D|--0--0--6H-6S--5-5P---0--0--6H-6S--5-5P---0--0--6H-6S--5-5P---8--8S--6-6S--5-5-5|
            
Submit corrections

comments powered by Disqus
↑ Back to top | Unsigned Bass for System Flatline - Trapped. Lyrics for acoustic guitar and electric guitar. 1 Tablatures and chords are parodies/interpretations of the original songs. You may use it for private study, scholarship, research or language learning purposes only