» » »

Sunnytravels - Feels Alright Tabs (ver.1)

Artists:  A B C D E F G H I J K L M N O P Q R S T U V W X Y Z # 

Sunnytravels - Feels Alright Tabs (ver.1)

Unsigned
Rating:
0/5 (0 votes)

Hard to play? Try these video lessons and learn fast.
                add a ton of improv riffs makes it sound kick ass 
   
\= slide down
/= slide up
b= bend
r= release bend
~= vibrato
                                 
  a major part of the song         
e]-----------------------------------------------------------------------|
b]---------------------------------------------------0-0-0-0-0/7-7-7-7-7-|
g]---------------------------------------------------1-1-1-1-1/8-8-8-8-8-|
d]---------------------------------------------------2-2-2-2-2/9-9-9-9-9-|
a]-9-9-11-9-9-11-9-9-11-9-11\4-4-6-4-4-6-4-4-6-4-6/\-2-2-2-2-2/9-9-9-9-9-|
e]-7-7--7-7-7--7-7-7--7-7--7\2-2-2-2-2-2-2-2-2-2-2/\-0-0-0-0-0/7-7-7-7-7-|

  chorus
e]-----2--------0--------------------------------------------------14-14-12-12-12-|
b]-----2-2-2----0-0-0-0--------------------------------------------14-14-12-12-12-|
g]-----3-3-3----1-1-1-1--6b8-8r6p4----7/8-8-7/8-8-7/8-8-7/8-8-8----15-15-13-13-13-|
d]---4---4-4--2---2-2-2------------6--8/9-9-8/9-9-8/9-9-8/9-9-9----16-16-14-14-14-|
a]---4---4-4--2---2-2-2---------------8/9-9-8/9-9-8/9-9-8/9-9-9----16-16-14-14-14-|
e]-0-2---2-2--0---0-0-0---------------6/7-7-6/7-7-6/7-7-6/7-7-7--0-14-14-12-12-12-|

e]---------------------------|
b]---------------------------|
g]-7/8-8-7/8-8-7/8-8-7/8-8-8-|
d]-8/9-9-8/9-9-8/9-9-8/9-9-9-|
a]-8/9-9-8/9-9-8/9-9-8/9-9-9-|
e]-6/7-7-6/7-7-6/7-7-6/7-7-7-|
  
  bridge
e]-7-7-7-7-7-7-7-7-7-7-14-14-14-14-14-14-14-14-14-14-12-12-12-12-12-12-12-12-12-12-|
b]-7-7-7-7-7-7-7-7-7-7-14-14-14-14-14-14-14-14-14-14-12-12-12-12-12-12-12-12-12-12-|
g]-8-8-8-8-8-8-8-8-8-8-15-15-15-15-15-15-15-15-15-15-13-13-13-13-13-13-13-13-13-13-|
d]-9-9-9-9-9-9-9-9-9-9-16-16-16-16-16-16-16-16-16-16-14-14-14-14-14-14-14-14-14-14-|
a]-9-9-9-9-9-9-9-9-9-9-16-16-16-16-16-16-16-16-16-16-14-14-14-14-14-14-14-14-14-14-|
e]-7-7-7-7-7-7-7-7-7-7-14-14-14-14-14-14-14-14-14-14-12-12-12-12-12-12-12-12-12-12-|

e]-7-7-7----------7-7-7-|
b]-7-7-7----------7-7-7-|
g]-8-8-8----------8-8-8-|
d]-9-9-9-9~9~9~9~-9-9-9-|
a]-9-9-9----------9-9-9-|
e]-7-7-7----------7-7-7-|

  solo, not gonna tab it but make sound like chuck berry
            
Hard to play? Try these video lessons and learn fast. | Correct




comments powered by Disqus
↑ Back to top | Tablatures and chords are parodies/interpretations of the original songs. You may use it for private study, scholarship, research or language learning purposes only