» » »

Unsigned, Suicide Method - Psllo Sic Bass tabs (ver.1)

Artists:  A B C D E F G H I J K L M N O P Q R S T U V W X Y Z # 

Suicide Method - Psllo Sic Bass tabs (ver.1)

Unsigned Tabs
 Rating:
4/5 (4 votes)
Suicide Method - Psllo Sic lessons Tabs too difficult? Try these video lessons and learn fast
                Suicide Method               “Psillo Sic” Bass Tab By: Tony Virgilio. Tuning 5 String Bass AEADG, written by: Virgilio,Gibas,Lamanske	
Verse & Outro Play 24X                       
G |---------------|
D |---------------|
A |---------------|
E |---------------|
A |-0-0-1-00-1\h3-|

Interlude Play 8X
G |----------------|
D |----------------|
A |----------------|
E |----------------|
A |-0-0-1-00---0-3-|

Chorus 1st part Play 2X
G |-------------------------------|
D |-------------------------------|
A |-------------------------------|
E |-------------------------------|
A |-000-0-0-0-0-9p8p7-9p8p7-9p8p7-|

Chorus 2nd Part Play 2X
G |-------------------------------|
D |-------------------------------|
A |-------------------------------|
E |-------------7p6p5-7p6p5-7p6p5-|
A |-000-0-0-0-0-------------------|

Chorus 3rd part 3X        Play 3rd time 
G |-----------------|----------------|
D |-----------------|----------------|
A |-----------------|----------------|
E |-7-6-5-9-8-7-6-5-|1818181818181818|
A |-----------------|----------------|


Band Fill 1
G |------------------------------|---------------------------|
D |------------------------------|---------------------------|
A |------------------------------|---------------------------|
E |---------------3-2-1-3-2-1-3-1|-----------3-2-1-3-2-1-3-1-|
A |-0-0-1-00-1\h3----------------|-1-00-1\h3-----------------|

Band Fill 2
G |-----------------------------------------------------|
D |-----------------------------------------------------|
A |-----------------------------------------------------|
E |-----------5-4-3-5-4-3-5-3-----------5-4-3-5-4-3-5-3-|
A |-1-00-1\h3-----------------1-00-1\h3-----------------|


Song Order
Verse Play 24X
Interlude Play 8X
Chorus 1st part Play 2X
Chorus 2nd part play 2X
Chorus 1st part play 2X
Chorus 3rd part play 3X
Verse play 8X
Band fill 1
Band fill 2
Band fill1
Band fill 2
Verse 8X
Interlude 8X
Chorus 1st part 2X
Chorus 2nd part 2X
Chorus 1st part 2X
Chorus 3rd part 3X
Outro 16X
            
Submit corrections

comments powered by Disqus
↑ Back to top | Unsigned Bass for Suicide Method - Psllo Sic. Lyrics for acoustic guitar and electric guitar. Tablatures and chords are parodies/interpretations of the original songs. You may use it for private study, scholarship, research or language learning purposes only