» » »

Suicide Method - Demonic Justice Bass tabs (ver.1)

Artists:  A B C D E F G H I J K L M N O P Q R S T U V W X Y Z # 

Suicide Method - Demonic Justice Bass tabs (ver.1)

Unsigned
Rating:
0/5 (0 votes)

Hard to play? Try these video lessons and learn fast.
                Suicide Method                      “Demonic Justice” Bass Tab By: Tony Virgilio,   Tuning one step down, Written By: Virgilio,Lamnske,Gibas
Verse 7X                            Bass Fill
F |----------------------------|  F |--------|
C |----------------------------|  C |--------|
G |----------------------------|  G |-7----7-|
D |-0—-000--11-2-1-0-1-0-2-0-3-|  D |-0----0-|

Chorus, Faster
Play 8X Alternate between chorus and chorus contind
F ||------------------------------------------------|
C ||------------------------------------------------|
G ||-------------------------------3333333322222222-|
D ||-00-1-2-0-3-0-5-00-1-2-0-3-0-5------------------|

Chorus Continued
F |------------------------------------------------|
C |-------------------------------3333333322222222-|
G |------------------------------------------------|
D |-00-1-2-0-3-0-5-00-1-2-0-3-0-5------------------|

Interlude Also Play as Outro
Play 10X
F ||------------------------------------------|
C ||-33333333-222222--------------------------|
G ||-----------------1111---------------------|
D ||----------------------2222222222-11111111-|
 
Interlude 2
Play 4X
F ||------------------------------------------------------------||
C ||------------------------------------------------------------||
G ||-(12/)------------------------------------------------------||
D ||------3--3-3-5-5-1-1-2-1-0-2-1-0-3--3-3-5-5-7-7-6-5-0-6-5-0-||

Band Fill
Play 10X
F ||----------------||
C ||----------------||
G ||----------------||
D ||-3-22-0-1-2-1-0-||
                                











Song Order:

Verse 7X
Bass Fill
Chorus 8X     Alternate between chorus and chorus contin....
Verse 2X
Interlude 10X
Interlude 2,   4X
Band Fill 10X
Outro 10X
            
Hard to play? Try these video lessons and learn fast. | Correct




comments powered by Disqus
↑ Back to top | Tablatures and chords are parodies/interpretations of the original songs. You may use it for private study, scholarship, research or language learning purposes only