» » »

Unsigned, Suicide Method - Bloodwork Bass tabs (ver.1)

Artists:  A B C D E F G H I J K L M N O P Q R S T U V W X Y Z # 

Suicide Method - Bloodwork Bass tabs (ver.1)

Unsigned Tabs
 Rating:
4/5 (4 votes)
Suicide Method - Bloodwork lessons Tabs too difficult? Try these video lessons and learn fast
                Suicide Method               “BloodWork” Bass Tab By: Tony Virgilio. Tuning 5 String Bass AEADG, written by: Virgilio,Gibas,Lamanske	

Intro 1st part, Play 4X                       On each 2nd X Do This..
G |-------------------------------------| G |---------------|
D |-------------------------------------| D |---------------|
A |----3-------3---------1-------1------| A |---1------12/3-|      
E |-------------------------------------| E |---------------|
A |-3----3-3-3---2-1--1----1-1-1---1-2--| A |-1---3\12------|

Intro 2nd part, do 4X follow Bass Drum
G |-------------------------------------------|
D |-------------------------------------------|
A |-------3-------3------------1-------1------|
E |-------------------------------------------|       ^
A |-3333----3-3-3---2-1--1111----1-1-1---1-2--| then  |

Verse 1st part Play 2X
G |------------------------------------|
D |------------------------------------|
A |------------------------------------|
E |--------------12/-------------------|
A |-0-00-3-00--------0-00-3-00-2--2/h1-|

Verse 2nd Part Play 2X
G |------------------------------------|
D |------------------------------------|
A |--------------12/-------------------|
E |------------------------------------|
A |-0-00-3-00--------0-00-3-00-2--2/h1-|

Band Fill
G |-----------------|
D |-----------------|
A |-----------------|
E |-----------------|
A |-2-1-2-1-2-1-2-1-|

Chorus Play 4X
G |------------------------------|
D |------------------------------|
A |------------------------------|
E |------------------------------|
A |-0--00-3-00-5-00-1-00-32-0-32-|

Interlude 1st part
G |---------------------------------------------|
D |---------------------------------------------|
A |---------------------------------------------|
E |-333-22------333-22------333-22--------------|
A |--------3-2~--------3-2~--------3-2~-2h3-3h4-|


Ineterlude 2nd part
G |---------------------------------------------|
D |---------------------------------------------|
A |---------------------------------------------|
E |-333-22------333-22------333-22--------------|
A |--------3-2~--------3-2~--------3-2~-2h3-3/1-|

Band Fill Play 8X
G |------------------------------------------------------|
D |------------------------------------------------------|
A |----3---3---3----2---2---2----3---3---3---6---5---7\/-|
E |------------------------------------------------------|
A |-3----3---3---2----2---2---3----3---3---6---5---7-----|

Outro 1st part
G |---------------------------------------------|
D |---------------------------------------------|
A |-333-22------333-22------333-22--------------|
E |--------3-2~--------3-2~--------3-2~-2h3-3h4-|
A |---------------------------------------------|

Outro 2nd part
G |---------------------------------------------|
D |---------------------------------------------|
A |-333-22------333-22------333-22--------------|
E |--------3-2~--------3-2~--------3-2~-2h3-3/1-|
A |---------------------------------------------|

Song Order
Intro 1st part 4X
Intro 2nd part 4X
Verse 1st part 2X
Verse 2nd Part 2X
Band Fill
Chorus 8X
Interlude 1st part
Interlude 2nd Part 
Interlude 1st part
Interlude 2nd part
Chorus 2X
Interlude 1st part
Interlude 2nd part
Interlude 1st part
Interlude 2nd part
Intro 1st part 4X
Intro 2nd part 4X
Verse 1st part 2X
Verse 2nd part 2X
Band Fill 8X
Verse 1st part 2X
Verse 2nd part 2X
Outro 1st part
Outro 2nd part
Outro 1st part
Outro 2nd part

						Suicide Method               “BloodWork” Bass Tab By: Tony Virgilio. Tuning 5 String Bass AEADG, written by: Virgilio,Gibas,Lamanske	

Intro 1st part, Play 4X                       On each 2nd X Do This..
G |-------------------------------------| G |---------------|
D |-------------------------------------| D |---------------|
A |----3-------3---------1-------1------| A |---1------12/3-|      
E |-------------------------------------| E |---------------|
A |-3----3-3-3---2-1--1----1-1-1---1-2--| A |-1---3\12------|

Intro 2nd part, do 4X follow Bass Drum
G |-------------------------------------------|
D |-------------------------------------------|
A |-------3-------3------------1-------1------|
E |-------------------------------------------|       ^
A |-3333----3-3-3---2-1--1111----1-1-1---1-2--| then  |

Verse 1st part Play 2X
G |------------------------------------|
D |------------------------------------|
A |------------------------------------|
E |--------------12/-------------------|
A |-0-00-3-00--------0-00-3-00-2--2/h1-|

Verse 2nd Part Play 2X
G |------------------------------------|
D |------------------------------------|
A |--------------12/-------------------|
E |------------------------------------|
A |-0-00-3-00--------0-00-3-00-2--2/h1-|

Band Fill
G |-----------------|
D |-----------------|
A |-----------------|
E |-----------------|
A |-2-1-2-1-2-1-2-1-|

Chorus Play 4X
G |------------------------------|
D |------------------------------|
A |------------------------------|
E |------------------------------|
A |-0--00-3-00-5-00-1-00-32-0-32-|

Interlude 1st part
G |---------------------------------------------|
D |---------------------------------------------|
A |---------------------------------------------|
E |-333-22------333-22------333-22--------------|
A |--------3-2~--------3-2~--------3-2~-2h3-3h4-|


Ineterlude 2nd part
G |---------------------------------------------|
D |---------------------------------------------|
A |---------------------------------------------|
E |-333-22------333-22------333-22--------------|
A |--------3-2~--------3-2~--------3-2~-2h3-3/1-|

Band Fill Play 8X
G |------------------------------------------------------|
D |------------------------------------------------------|
A |----3---3---3----2---2---2----3---3---3---6---5---7\/-|
E |------------------------------------------------------|
A |-3----3---3---2----2---2---3----3---3---6---5---7-----|

Outro 1st part
G |---------------------------------------------|
D |---------------------------------------------|
A |-333-22------333-22------333-22--------------|
E |--------3-2~--------3-2~--------3-2~-2h3-3h4-|
A |---------------------------------------------|

Outro 2nd part
G |---------------------------------------------|
D |---------------------------------------------|
A |-333-22------333-22------333-22--------------|
E |--------3-2~--------3-2~--------3-2~-2h3-3/1-|
A |---------------------------------------------|

Song Order
Intro 1st part 4X
Intro 2nd part 4X
Verse 1st part 2X
Verse 2nd Part 2X
Band Fill
Chorus 8X
Interlude 1st part
Interlude 2nd Part 
Interlude 1st part
Interlude 2nd part
Chorus 2X
Interlude 1st part
Interlude 2nd part
Interlude 1st part
Interlude 2nd part
Intro 1st part 4X
Intro 2nd part 4X
Verse 1st part 2X
Verse 2nd part 2X
Band Fill 8X
Verse 1st part 2X
Verse 2nd part 2X
Outro 1st part
Outro 2nd part
Outro 1st part
Outro 2nd part

						Suicide Method               “BloodWork” Bass Tab By: Tony Virgilio. Tuning 5 String Bass AEADG, written by: Virgilio,Gibas,Lamanske	

Intro 1st part, Play 4X                       On each 2nd X Do This..
G |-------------------------------------| G |---------------|
D |-------------------------------------| D |---------------|
A |----3-------3---------1-------1------| A |---1------12/3-|      
E |-------------------------------------| E |---------------|
A |-3----3-3-3---2-1--1----1-1-1---1-2--| A |-1---3\12------|

Intro 2nd part, do 4X follow Bass Drum
G |-------------------------------------------|
D |-------------------------------------------|
A |-------3-------3------------1-------1------|
E |-------------------------------------------|       ^
A |-3333----3-3-3---2-1--1111----1-1-1---1-2--| then  |

Verse 1st part Play 2X
G |------------------------------------|
D |------------------------------------|
A |------------------------------------|
E |--------------12/-------------------|
A |-0-00-3-00--------0-00-3-00-2--2/h1-|

Verse 2nd Part Play 2X
G |------------------------------------|
D |------------------------------------|
A |--------------12/-------------------|
E |------------------------------------|
A |-0-00-3-00--------0-00-3-00-2--2/h1-|

Band Fill
G |-----------------|
D |-----------------|
A |-----------------|
E |-----------------|
A |-2-1-2-1-2-1-2-1-|

Chorus Play 4X
G |------------------------------|
D |------------------------------|
A |------------------------------|
E |------------------------------|
A |-0--00-3-00-5-00-1-00-32-0-32-|

Interlude 1st part
G |---------------------------------------------|
D |---------------------------------------------|
A |---------------------------------------------|
E |-333-22------333-22------333-22--------------|
A |--------3-2~--------3-2~--------3-2~-2h3-3h4-|


Ineterlude 2nd part
G |---------------------------------------------|
D |---------------------------------------------|
A |---------------------------------------------|
E |-333-22------333-22------333-22--------------|
A |--------3-2~--------3-2~--------3-2~-2h3-3/1-|

Band Fill Play 8X
G |------------------------------------------------------|
D |------------------------------------------------------|
A |----3---3---3----2---2---2----3---3---3---6---5---7\/-|
E |------------------------------------------------------|
A |-3----3---3---2----2---2---3----3---3---6---5---7-----|

Outro 1st part
G |---------------------------------------------|
D |---------------------------------------------|
A |-333-22------333-22------333-22--------------|
E |--------3-2~--------3-2~--------3-2~-2h3-3h4-|
A |---------------------------------------------|

Outro 2nd part
G |---------------------------------------------|
D |---------------------------------------------|
A |-333-22------333-22------333-22--------------|
E |--------3-2~--------3-2~--------3-2~-2h3-3/1-|
A |---------------------------------------------|

Song Order
Intro 1st part 4X
Intro 2nd part 4X
Verse 1st part 2X
Verse 2nd Part 2X
Band Fill
Chorus 8X
Interlude 1st part
Interlude 2nd Part 
Interlude 1st part
Interlude 2nd part
Chorus 2X
Interlude 1st part
Interlude 2nd part
Interlude 1st part
Interlude 2nd part
Intro 1st part 4X
Intro 2nd part 4X
Verse 1st part 2X
Verse 2nd part 2X
Band Fill 8X
Verse 1st part 2X
Verse 2nd part 2X
Outro 1st part
Outro 2nd part
Outro 1st part
Outro 2nd part

						Suicide Method               “BloodWork” Bass Tab By: Tony Virgilio. Tuning 5 String Bass AEADG, written by: Virgilio,Gibas,Lamanske	

Intro 1st part, Play 4X                       On each 2nd X Do This..
G |-------------------------------------| G |---------------|
D |-------------------------------------| D |---------------|
A |----3-------3---------1-------1------| A |---1------12/3-|      
E |-------------------------------------| E |---------------|
A |-3----3-3-3---2-1--1----1-1-1---1-2--| A |-1---3\12------|

Intro 2nd part, do 4X follow Bass Drum
G |-------------------------------------------|
D |-------------------------------------------|
A |-------3-------3------------1-------1------|
E |-------------------------------------------|       ^
A |-3333----3-3-3---2-1--1111----1-1-1---1-2--| then  |

Verse 1st part Play 2X
G |------------------------------------|
D |------------------------------------|
A |------------------------------------|
E |--------------12/-------------------|
A |-0-00-3-00--------0-00-3-00-2--2/h1-|

Verse 2nd Part Play 2X
G |------------------------------------|
D |------------------------------------|
A |--------------12/-------------------|
E |------------------------------------|
A |-0-00-3-00--------0-00-3-00-2--2/h1-|

Band Fill
G |-----------------|
D |-----------------|
A |-----------------|
E |-----------------|
A |-2-1-2-1-2-1-2-1-|

Chorus Play 4X
G |------------------------------|
D |------------------------------|
A |------------------------------|
E |------------------------------|
A |-0--00-3-00-5-00-1-00-32-0-32-|

Interlude 1st part
G |---------------------------------------------|
D |---------------------------------------------|
A |---------------------------------------------|
E |-333-22------333-22------333-22--------------|
A |--------3-2~--------3-2~--------3-2~-2h3-3h4-|


Ineterlude 2nd part
G |---------------------------------------------|
D |---------------------------------------------|
A |---------------------------------------------|
E |-333-22------333-22------333-22--------------|
A |--------3-2~--------3-2~--------3-2~-2h3-3/1-|

Band Fill Play 8X
G |------------------------------------------------------|
D |------------------------------------------------------|
A |----3---3---3----2---2---2----3---3---3---6---5---7\/-|
E |------------------------------------------------------|
A |-3----3---3---2----2---2---3----3---3---6---5---7-----|

Outro 1st part
G |---------------------------------------------|
D |---------------------------------------------|
A |-333-22------333-22------333-22--------------|
E |--------3-2~--------3-2~--------3-2~-2h3-3h4-|
A |---------------------------------------------|

Outro 2nd part
G |---------------------------------------------|
D |---------------------------------------------|
A |-333-22------333-22------333-22--------------|
E |--------3-2~--------3-2~--------3-2~-2h3-3/1-|
A |---------------------------------------------|

Song Order
Intro 1st part 4X
Intro 2nd part 4X
Verse 1st part 2X
Verse 2nd Part 2X
Band Fill
Chorus 8X
Interlude 1st part
Interlude 2nd Part 
Interlude 1st part
Interlude 2nd part
Chorus 2X
Interlude 1st part
Interlude 2nd part
Interlude 1st part
Interlude 2nd part
Intro 1st part 4X
Intro 2nd part 4X
Verse 1st part 2X
Verse 2nd part 2X
Band Fill 8X
Verse 1st part 2X
Verse 2nd part 2X
Outro 1st part
Outro 2nd part
Outro 1st part
Outro 2nd part

v
            
Submit corrections

comments powered by Disqus
↑ Back to top | Unsigned Bass for Suicide Method - Bloodwork. Lyrics for acoustic guitar and electric guitar. Tablatures and chords are parodies/interpretations of the original songs. You may use it for private study, scholarship, research or language learning purposes only