» » »

Unsigned, Stoplitegreen - No Matter Tabs (ver.1)

Artists:  A B C D E F G H I J K L M N O P Q R S T U V W X Y Z # 

Stoplitegreen - No Matter Tabs (ver.1)

Unsigned Tabs
Rating:
0/5 (0 votes)
Stoplitegreen - No Matter lessons Tabs too difficult? Try these video lessons and learn fast
                Intro

E ----------------------------------------
B ----------------------------------------
G ----------------------------------------
D ------------------------------------5-5-
A --77777777--55555555--33333333--5---3-3-
E --55555555--33333333--11111111--3-------

Verse 1

E --------------------------
B --------------------------
G --------------------------
D --------55--7-------------
A --77-55-33--5-------------
E --55-33-------------------

Verse 2

E --------------------------
B --------------------------
G --------------------------
D --999---------------------
A --777-777-11-11-11--9999--
E ------555--9--9--9--7777--

Chorus

E --------------------------
B --------------------------------
G --------------------------------
D ------------------555555--7-----
A --777777--333333--333333--5-55--
E --555555--111111------------33--

Solo

E ------------------------------------
B ------------------------------------
G ------------------------------------
D ---7-7-7-7-7-7-7-7-7-7-7-7-7-7-7-7--
A --5-5-5-5-4-4-4-4-7-7-7-7-5-5-4-4---
E ------------------------------------

Order:
Intro------1x
Verse 1----8x
Verse 2----4x
Chorus-----2x
Verse 1----6x
Verse 2----4x
Chorus-----4x
Verse 1----2x
Verse 2----2x
Solo-------4x
Chorus-----4x
Verse 1----2x
            
Submit corrections

comments powered by Disqus
↑ Back to top | Unsigned Tabs for Stoplitegreen - No Matter. Lyrics for acoustic guitar and electric guitar. Tablatures and chords are parodies/interpretations of the original songs. You may use it for private study, scholarship, research or language learning purposes only