» » »

Unsigned, Stereo Ad - Death By Gone Tabs (ver.1)

Artists:  A B C D E F G H I J K L M N O P Q R S T U V W X Y Z # 

Stereo Ad - Death By Gone Tabs (ver.1)

Unsigned Tabs
 Rating:
4/5 (4 votes)
Stereo Ad - Death By Gone lessons Tabs too difficult? Try these video lessons and learn fast
1
                Intro

|----------------------------------|x2
|----------------------------------|
|----------------------------------|
|---2---2---2---2---2---2---2---2--|
|-00-000-033-322-200-000-033-322-2-|
|----------------------------------|

|----------------------------------|x2
|----------------------------------|
|---2---2---2---2---2---2---2---2--|
|-00-000-033-322-200-000-033-322-2-|
|----------------------------------|
|----------------------------------|

|----------------------------------|x2
|----------------------------------|
|----------------------------------|
|---2---2---2---2---2---2---2---2--|
|-00-000-033-322-200-000-033-322-2-|
|----------------------------------|

Verse 1

|--Am-/-/-/-/-/-/-/-D-/-/-/-/-/-/-/-|
                                      }x2 
|--C-/-/-/-/-/-/-/-G-/-/-/-E-/-/-/--|

|--Am-/-/-/-/-/-/-/-F-/-/-/-/-/-/-/-|
                                      }x2
|--C-/-/-/-/-/-/-/-G-/-/-/-E-/-/-/--|

Chorus 1

|---------------------------------------------------|
|---------------------------------------------------|
|---------------------------------------------------|
|--2-----2-----2-5-----5-----5-10---10---10-7-7-5-5-|
|--2-----2-----2-5-----5-----5-10---10---10-7-7-5-5-|
|--0-----0-----0-3-----3-----3--8----8----8-5-5-3-3-|

|---------------------------------------------------|
|---------------------------------------------------|
|---------------------------------------------------|
|--2-xx-2-----2-5-xx-5-----5-10-xx-10---10-7-7-5-5--|
|--2-xx-2-----2-5-xx-5-----5-10-xx-10---10-7-7-5-5--|
|--0-xx-0-----0-3-xx-3-----3--8-xx--8----8-5-5-3-3--|

Verse 2

|--Am-/-/-/-/-/-/-/-D-/-/-/-/-/-/-/-|
                                      }x2 
|--C-/-/-/-/-/-/-/-G-/-/-/-E-/-/-/--|

|--Am-/-/-/-/-/-/-/-F-/-/-/-/-/-/-/-|
                                      }x2
|--C-/-/-/-/-/-/-/-G-/-/-/-E-/-/-/--|

Chorus 2

|---------------------------------------------------|
|---------------------------------------------------|
|---------------------------------------------------|
|--2-----2-----2-5-----5-----5-10---10---10-7-7-5-5-|
|--2-----2-----2-5-----5-----5-10---10---10-7-7-5-5-|
|--0-----0-----0-3-----3-----3--8----8----8-5-5-3-3-|

|---------------------------------------------------|
|---------------------------------------------------|
|---------------------------------------------------|
|--2-xx-2-----2-5-xx-5-----5-10-xx-10---10-7-7-5-5--|
|--2-xx-2-----2-5-xx-5-----5-10-xx-10---10-7-7-5-5--|
|--0-xx-0-----0-3-xx-3-----3--8-xx--8----8-5-5-3-3--|

Outro

|----------------------------------|x2
|----------------------------------|
|----------------------------------|
|---2---2---2---2---2---2---2---2--|
|-00-000-033-322-200-000-033-322-2-|
|----------------------------------|

|----------------------------------|x2
|----------------------------------|
|---2---2---2---2---2---2---2---2--|
|-00-000-033-322-200-000-033-322-2-|
|----------------------------------|
|----------------------------------|

|----------------------------------|
|-2--------------------------------|
|-2--------------------------------|
|-0--------------------------------|
|----------------------------------|
|----------------------------------|
            
Submit corrections

comments powered by Disqus
↑ Back to top | Unsigned Tabs for Stereo Ad - Death By Gone. Lyrics for acoustic guitar and electric guitar. 1 Tablatures and chords are parodies/interpretations of the original songs. You may use it for private study, scholarship, research or language learning purposes only