» » »

Spaz Foot Monkey Tramp - El Chupacabra Bass tabs (ver.1)

Artists:  A B C D E F G H I J K L M N O P Q R S T U V W X Y Z # 

Spaz Foot Monkey Tramp - El Chupacabra Bass tabs (ver.1)

Unsigned
Rating:
0/5 (0 votes)

Hard to play? Try these video lessons and learn fast.
                
Intro:

G|---------------------------------|----------------------------------|
D|---------------------------------|----------------------------------|
A|---------------------------------|----------------------------------|
E|-0---0---0---0---5-3-2-3-5-3-2-3-|-0000000000000000-5-3-2-3-5-3-2-3-|
  \____________ X 4 ______________/ \____________ X 4 ______________/

Verse:

                                 
G|--------------|
D|--------------|
A|--------------|
E|-3-3-33-2-22-0|
 \____ X 10 ____/

Chorus:

G|-----------|
D|-----------|
A|-----------|
E|-3-----2-0-| X 4

Guitar Solo:

G|--------------|
D|--------------|
A|--------------|
E|-3-3-33-2-22-0|
 \____ X ? ____/


Chorus:

G|-----------|
D|-----------|
A|-----------|
E|-3-----2-0-| X 4


Wait For Guitar Palm-Muted Bit
Then...

Interlude:

G|---------------------------------|
D|---------------------------------|
A|---------------------------------|
E|-3-3-3-3-3-3-3-3-2-2-2-2-0-0-0-0-| X 8

Chorus:

G|-----------|
D|-----------|
A|-----------|
E|-3-----2-0-| X 4


Intro:

G|---------------------------------|----------------------------------|
D|---------------------------------|----------------------------------|
A|---------------------------------|----------------------------------|
E|-0---0---0---0---5-3-2-3-5-3-2-3-|-0000000000000000-5-3-2-3-5-3-2-3-|
  \____________ X 4 ______________/ \____________ X 4 ______________/

Verse:

                                 
G|---------------|
D|---------------|
A|---------------|
E|-3-3-33-2-22-0-|
 \____ X 10 ____/


Drum Solo:

G|---------------------------------------------------------------------------------|
D|---------------------------------------------------------------------------------|
A|-5-5-5-5-5-5-5-5-8-8-8-8-8-8-8-8-10-10-10-10-10-10-10-10-10-10-10-10-10-10-10-10-|
E|---------------------------------------------------------------------------------|

Repeat 3 times then play

G|-----------------------------------------------------------------|
D|-----------------------------------------------------------------|
A|-5-5-5-5-5-5-5-5-8-8-8-8-8-8-8-8---------------------------------|
E|---------------------------------5-5-5-5-5-5-5-5-5-5-5-5-5-5-5-5-| 

Wait for guitar then....

Interlude:

G|---------------|
D|---------------|
A|---------------|
E|-3-3-3-2-22-0--|
 \____  X 8 ____/


Then...

Chorus:

G|-----------|
D|-----------|
A|-----------|
E|-3-----2-0-| X 4

Bass Solo:

G|--------------3h5----|--------------3h5----|--------------3----|
D|-----------------3h4-|-----------------3h4-|----------------2--|
A|---------------------|---------------------|-------------------|
E|-3-3----x-3-3--------|-3-3----x-3-3--------|-3-3----0-3-3------|
   S S    S S S P  P     S S    S S S P  P     S S    S S S P P    

G|--------------3h5----|
D|-----------------3h4-|
A|---------------------|
E|-3-3----x-3-3--------|
   S S    S S S P  P
            
Hard to play? Try these video lessons and learn fast. | Correct




comments powered by Disqus
↑ Back to top | Tablatures and chords are parodies/interpretations of the original songs. You may use it for private study, scholarship, research or language learning purposes only