» » »

Spankin Clowns - Red Nose Tabs (ver.1)

Artists:  A B C D E F G H I J K L M N O P Q R S T U V W X Y Z # 

Spankin Clowns - Red Nose Tabs (ver.1)

Unsigned
Rating:
0/5 (0 votes)

Hard to play? Try these video lessons and learn fast.
                intro/chorus

intro/ chorus


e    ----------------------------------------------------------------------------------------------------------
b    ------------------------------------------------------------------------------------------------------------
g    -------------------------------------------------------------------------------------------------------------
d    ------------------------------------------------------2-2-0--2-2-0--2--2--0----5-5-5---2-----------------------------------
a    --------2------1------0--------2-------1-------0------2-2-0--2-2-0--2--2--0----5-5-5---2-----------------------------------
e    --0-0-----0-0----0-0------0-0-----0-0------0-0--------1-1-0--1-1-0--1--1--0----3-3-3---1---------------------------------

       yo i am funny,i eat honey. if you dont like me than like someone else. sometimes i tell jokes,light a few smokes, but i like to still tell jokes.
     
       sometimes i turn chinesse,japanesse,outher countries such as pee-pees
       
       if you laugh at me than i will laugh at you . so dont eat chedder cheese.


|---------------------------------------------------------|
|---------------------------------------------------------|
|------------77777777------------77777777------------7--6-|
|--2-222222--77777777--22222222--77777777--22222222--7--6-|
|--2-222222--55555555--22222222--55555555--22222222--5--4-|
|--0-000000------------00000000------------00000000-------|
        
  yo im a clown!!!!!!!!!!!!!!!!!!!!!!!!!!!!!! clown.


|---------------------------------------------------------|
|---------------------------------------------------------|
|------------77777777------------77777777------------7--6-|
|--2-222222--77777777--22222222--77777777--22222222--7--6-|
|--2-222222--55555555--22222222--55555555--22222222--5--4-|
|--0-000000------------00000000------------00000000-------|
 so tell me who i am~!!!!!!!!!!!!!!!!!!!!!!!!!!!!!!11!!11



Pre Verse/Palm Muted  (Distortion Pedal still on)
|----------------------------------|
|----------------------------------|
|--2-2-2-2-2-2-2-2-2-2-2-2-2-2-2-2-|
|--2-2-2-2-2-2-2-2-2-2-2-2-2-2-2-2-|
|--0-0-0-0-0-0-0-0-0-0-0-0-0-0-0-0-|
|----------------------------------|
 no one tells me what to do, so take a poo-poo




Pre Verse/Palm Muted  (Distortion Pedal still on)
|----------------------------------|
|----------------------------------|
|--2-2-2-2-2-2-2-2-2-2-2-2-2-2-2-2-|
|--2-2-2-2-2-2-2-2-2-2-2-2-2-2-2-2-|
|--0-0-0-0-0-0-0-0-0-0-0-0-0-0-0-0-|
|----------------------------------|
 soup disoure,yo i eat pizza with no cheese


E|---------------------------------------------------------------------------| 
B|--2-----2-----2-----3------2-----2-----2-----3-----2-----2-----2-----3-----|
G|-----2-----2-----2-----2------2-----2-----2-----2-----2-----2-----2-----2--|
D|---------------------------------------------------------------------------| 
A|---------------------------------------------------------------------------| 
E|---------------------------------------------------------------------------| 

      sometimes i see the sky turn yellow but i never see it
      when i go to the dentist i order tooth pays but i see a chinesse guy
      over there eating spegettii and manouse.so i say con chew to him and he said wanchew.
      over the pasture i see a big elephant smashing a guy with a british accent.

   
e|-------------------7--8--7--|-10--8--7---------------------------|
b|----------------------------|-----------10--9--10--9--10~--(10)~-|
g|-----------5---7^-----------|------------------------------------|
d|----5--7--------------------|------------------------------------|
a|-7--------------------------|------------------------------------|
e|----------------------------|------------------------------------|
 when you run its kin of funny the way you limp on one toe.
 but once i saw a chinesse guy with gum stuck to his shoe. and then when we glanced at him i saw him eat it.

|----------------------------------|
|----------------------------------|
|--2-2-2-2-2-2-2-2-2-2-2-2-2-2-2-2-|
|--2-2-2-2-2-2-2-2-2-2-2-2-2-2-2-2-|
|--0-0-0-0-0-0-0-0-0-0-0-0-0-0-0-0-|
|----------------------------------|
 so it is time for me to be a clown!
            
Hard to play? Try these video lessons and learn fast. | Correct




comments powered by Disqus
↑ Back to top | Tablatures and chords are parodies/interpretations of the original songs. You may use it for private study, scholarship, research or language learning purposes only