» » »

Souls Of Oblivion - Fate Tabs (ver.1)

Artists:  A B C D E F G H I J K L M N O P Q R S T U V W X Y Z # 

Souls Of Oblivion - Fate Tabs (ver.1)

Unsigned
Rating:
0/5 (0 votes)

Tabs too difficult? Try these video lessons and learn fast.
                Souls of Oblivion
Fate

Tunning D,A,D,G,B,E

Intro
|-----------------------------------------
|-----------------------------------------
|-----------------------------------------
|-----------------------------------------
|---5---5---5---5---5---7---8---7---5---5-
|-0---0---0---0---0---0---0---0---0---0---

|-----------------------------------------
|-----------------------------------------
|-----------------------------------------
|-----------------------------------------
|---3---3---3---3---3---1---1---0---0---0-
|-0---0---0---0---0---0---0---0---0---0---    play both twice

|-----------------------------------------
|-----------------------------------------
|-----------------------------------------
|-------------------------------8---7---5-
|---5---5---5---5---5---7---8-------------
|-0---0---0---0---0---0---0---0---0---0---

|---------------------------------------------------------------------
|---------------------------------------------------------------------
|---------------------------------------------------------------------
|-----------------------3---5---3---2---2-----2---2---0---0---0-------
|---3---3---3---3---3-------------------------------------------------
|-0---0---0---0---0---0---0---0---0---0-----0---0---0---0---0---------

|-----------------------------------------
|-----------------------------------------
|-----------------------------------------
|-----------------------------------------
|---5---3---1---1---1---0---1---3---5---3-
|-0---0---0---0---0---0---0---0---0---0--- <--play twice and end on A|--5--|

Chorus (Distorted,play twice)
|---------------------------------------------------------------------
|---------------------------------------------------------------------
|---------------------------------------------------------------------
|-55555555-7777888877775555-33333333-11110000-------------------------
|-55555555-7777888877775555-33333333-11110000-------------------------
|-55555555-7777888877775555-33333333-11110000-------------------------
p.m.                                     ....

Verse (Palm Muted, play 4 times)
|---------------------------------------------------------------------
|---------------------------------------------------------------------
|---------------------------------------------------------------------
|---------------------------------------------------------------------
|---5---5---5---5---5---3---3---1---1---1-----------------------------
|-5---5---5---5---5---3---3---1---1---1-------------------------------

Interlude (Palm Muted, play 6 times)
|---------------------------------------------------------------------
|---------------------------------------------------------------------
|---------------------------------------------------------------------
|-------5---------------1---------------------------------------------
|-----5---5---3---1---1---1---0---1-----------------------------------
|---5-------3---1---1-------0---1-------------------------------------

Break (...black!!) Distorted
|---------------------------------------------------------------------
|---------------------------------------------------------------------
|---------------------------------------------------------------------
|-55555555------------------------------------------------------------
|-55555555------------------------------------------------------------
|-55555555...repeat---------------------------------------------------

Ending
|---------------------------------------------------------------------
|---------------------------------------------------------------------
|---------------------------------------------------------------------
|-5-3-1-3-0(let ring)------5------------------------------------------
|-5-3-1-3-0----"-----------5------------------------------------------
|-5-3-1-3-0----"-----------5------------------------------------------

well there is it... enjoy playing it... you should, it was transcripted by 
myself, i created that song so please i need your comments okk? please
take care =)
            
Tabs too difficult? Try these video lessons and learn fast.


comments powered by Disqus
↑ Back to top | Tablatures and chords are parodies/interpretations of the original songs. You may use it for private study, scholarship, research or language learning purposes only