» » »

Unsigned, Sonus - Superficial Day Bass tabs (ver.1)

Artists:  A B C D E F G H I J K L M N O P Q R S T U V W X Y Z # 

Sonus - Superficial Day Bass tabs (ver.1)

Unsigned Tabs
 Rating:
4/5 (4 votes)
Sonus - Superficial Day lessons Tabs too difficult? Try these video lessons and learn fast
                Sonus “Superfical Day” BASS
standard tuning E A D G
listen to song for timing

Verse 
G------------------------------------
D--1-1-3-3-3-3-3-1-1-1-3-3-3-1-1
A-----------------------------------
E-------------------------------------3-3-3-3--6-6-6-6

Chorus
G----------------
D----------------
A-3-3-3-3-3-3--6-6-6-6-6-6-----
E------------------------------6-6-6-6-6--5-5-5-5-5

after you play that 2 each pat has a solo part then it goes into:
pre bridge
G---------
D----------
A-6-6-6-6-6-----
E-------------3-3-3-3-3--  x4

then the bridge:
G-----
D-----
A-1-1-1-1-1-x2--3-3-3-3-3-x2----------------6-6-6-6-6 x2
E---------------------------------3-3-3-3-3-x2

then finish with the verse and thats superfical day on bass
            
Submit corrections

comments powered by Disqus
↑ Back to top | Unsigned Bass for Sonus - Superficial Day. Lyrics for acoustic guitar and electric guitar. Tablatures and chords are parodies/interpretations of the original songs. You may use it for private study, scholarship, research or language learning purposes only