» » »

Unsigned, Sonus - New Age Bass tabs (ver.1)

Artists:  A B C D E F G H I J K L M N O P Q R S T U V W X Y Z # 

Sonus - New Age Bass tabs (ver.1)

Unsigned Tabs
 Rating:
4/5 (4 votes)
Sonus - New Age lessons Tabs too difficult? Try these video lessons and learn fast
1
                Sonus “New Age” BASS
Standard tuning E A D G
 listen to song for when to come in
this is a slower song

verse
    
G---------
D----------
A-1---3---
E----------3

pre chorus
G------------
D------------ x4
A-1----------
E------1-----3
...then you let go
then the next part is
G--------------
D-----------x4
A-6-----------
E------3----1-
... on a road through you

chorus
G----------------------------------------------------------------------
D----------------------------------------------------------------------
A--6-6-6-6-6-6---10-10-10-10-10-10-------------------6-6-6-6-6-6
E-------------------------------------------6-6-6-6-6-6---------------

bridge
G-----------------------
D-----------------------
A-1-1--3-3-------------  repeat till end
E-------------3-3-3-3-3
            
Submit corrections

comments powered by Disqus
↑ Back to top | Unsigned Bass for Sonus - New Age. Lyrics for acoustic guitar and electric guitar. 1 Tablatures and chords are parodies/interpretations of the original songs. You may use it for private study, scholarship, research or language learning purposes only